Hammerfall

Heeding The Call (solo)

Hammerfall

tabs

save to print version add songbook text version e-mail correct tuner
chordsukulelecavacokeyboardtabbassdrumsharmonicaflute Guitar Pro
close

there isn't a video lesson for this song

chords

Heeding The Call (solo)

	  		 
Afinação:Eb Ab Db Gb Bb eb 
Primeiro solo:(2:21) 
|---------------------------------------------------------------------------| 
|-----------------------------------------------8-10~~~-10-10-10~~~8-10-----| 
|--5~~~5-5-5--7--4h5p4~~~----------------7-9-10-------------------------9~~-|Gtr I 
|-------------------------5-------------------------------------------------| 
|----------------------------7~~~-------------------------------------------| 
|---------------------------------------------------------------------------| 
 
|---------------------------------------------------------------------------| 
|----------------12-13-15--/18p13----13--18p13----13--------13----18p13-----| 
|----------12-14------------------14-----------14--------14----14-------14--|Gtr I 
|-12-14-15--------------------------------------------15--------------------| 
|---------------------------------------------------------------------------| 
|---------------------------------------------------------------------------| 
                                                   
|--------/15p12----12---15p12----12-------12----15p12----12-----------------| 
|--13-----------13------------13-------13----13-------13--------------------| 
|-----------------------------------12--------------------------------------|Gtr I 
|---------------------------------------------------------------------------| 
|---------------------------------------------------------------------------| 
|---------------------------------------------------------------------------| 
 
|--/20p15----15---19p15----15--------15----19p15----15----------------------| 
|---------17------------17--------17----17-------17-------------------------| 
|------------------------------17-------------------------------------------|Gtr I 
|---------------------------------------------------------------------------| 
|---------------------------------------------------------------------------| 
|---------------------------------------------------------------------------| 
                                                   
|-/20p15----15--19p15----15--20p15----15---20^^^^^^^^^^---------------------| 
|--------17-----------17-----------17---------------------------------------| 
|---------------------------------------------------------------------------|Gtr I 
|---------------------------------------------------------------------------| 
|---------------------------------------------------------------------------| 
|---------------------------------------------------------------------------| 
  
|--------------------------------------------------| 
|--------------------------------------------------| 
|-5------------------------------2--------------9--|Gtr II 
|-5----------------5-------------2--------------9--| 
|-3----------------5-------------0--------------7--| 
|------------------3-------------------------------|      
 
|--------------------------------------------------| 
|--------------------------------------------------| 
|--------------------------------------------------|Gtr II 
|-10-10-10-10-10-10-10-10-10-10-10-10-10-10-10-10--| 
|--8--8--8--8--8--8--8--8--8--8--8--8--8--8--8--8--| 
|--------------------------------------------------| 
   .  .  .  .  .  .  .  .  .  .  .  .  .  .  .  .        
 
|--------------------------------------------------| 
|--------------------------------------------------| 
|--------------------------------------------------|Gtr II 
|--------------------------------------------------| 
|--3--3--3--3--3--3--3--3--3--3--3--3--3--3--3--3--| 
|--------------------------------------------------| 
   .  .  .  .  .  .  .  .  .  .  .  .  .  .  .  . 
                                     
|--------------------------------------------------| 
|--------------------------------------------------| 
|--------------------------------------------------|Gtr II 
|--------------------------------------------------| 
|--5--5--5--5--5--5--5--5--5--5--5--5--5--5--5--5--| 
|--3--3--3--3--3--3--3--3--3--3--3--3--3--3--3--3--| 
      .  .  .  .  .  .  .  .  .  .  .  .  .  .  . 
|--------------------------------------------------| 
|--------------------------------------------------| 
|--------------------------------------------------|Gtr II 
|--------------------------7-----------------------| 
|--5-----------------------5-----------------------| 
|--3-----------------------------------------------| 
 
Segundo solo:(3:20) 
|---------------------------------------------------------------------------| 
|------------------------------------------18-17-15----------------15-18~~~-| 
|---7(ph)~~~~~~~------------------14-15-17----------17-15-14-15-17----------|Gtr I 
|------------------------14-15-17-------------------------------------------| 
|---------------------17----------------------------------------------------| 
|---------------------------------------------------------------------------| 
sweep|______________________________________________| 
|----------17-------------15-------------13-------------12------------------| 
|-------18----18-------17----17-------15----15-------13----13--/15~~~~~~----| 
|----19-------------17-------------15-------------14------------------------|Gtr I 
|---------------------------------------------------------------------------| 
|---------------------------------------------------------------------------| 
|---------------------------------------------------------------------------| 
    |______________________trem. picking____________| 
|---/17-20-18-17-18----17---------------------------------------------------| 
|-------------------20----18-20-17-18-20-17-18----17-18--18-18~~~~~~~~\-----| 
|----------------------------------------------19----------------------\----|Gtr I 
|-----------------------------------------------------------------------\---| 
|------------------------------------------------------------------------\--| 
|-------------------------------------------------------------------------\-| 
 
|-------------------------------------------------------| 
|-------------------------------------------------------| 
|-------------------------------------------------------|Gtr II 
|-----------------3-------5-------3--------3-2-------5--| 
|-55555555555555551-1111113-3333331--------1-0-5-----3--| 
|-|---|---|---|---|---|---|---|---|------------3--------|      
   ...............  ......  ...... 
 
|-----------------------------------------------------------------| 
|-----------------------------------------------------------------| 
|-----------------------------------------------------------------|Gtr II 
|-7---------------3-------5-------3--------3---------5----2--(2)--| 
|-5-555555555855551-1111113-3333331--------1---5-----3----0--(0)--| 
|-|---|---|---|---|---|---|---|---|------------3------------------|      
    ..............  ......  ...... 
 
| /  slide up 
| \  slide down 
| h  hammer-on 
| p  pull-off 
| ~  vibrato 
| +  harmonic 
| x  Mute note 
 
_______________________________________________________ 
Contribuição: Taino Vieira([email protected]) 

		  

Full key step upFull key step up
Half key step upHalf key step up
Half key step downHalf key step down
Full key step downFull key step down