Gustav Holst

Jupiter The Bringer Of Jollity

Gustav Holst

tabs

by  DEIVCAVALCANTI

save to print version add songbook text version e-mail correct tuner
chordsukulelecavacokeyboardtabbassdrumsharmonicaflute Guitar Pro
close

there isn't a video lesson for this song

chords

Jupiter The Bringer Of Jollity

	  		 

e|-------------|--------------1----|------------|-----------------| 
B|-------------|--4--3-----4-----4-|-3--1--3--1-|-----------------| 
G|--0--3--5--5-|--------3--3-------|------------|-3---------0--3--| 
D|-------------|-----3-------------|-1--1-------|----1------------| 
A|-------------|-------------------|------------|-1---------1-----| 
E|--------4----|-------------------|------------|----3------------| 

e|----------------|----1--3--3--3--1-----1----|-------1--1-----3--| 
B|-1---1--4--3----|-4-----------------4--1--4-|-------3-----4-----| 
G|--------------3-|-3--------3--1-------------|-3--0--------------| 
D|-1---------3----|----------------------3----|-1-----------------| 
A|----------------|---------------------------|-------------3-----| 
E|----------------|---------------------------|-------------------| 

e|-1-----------|-----------6--8-|-----8---10--11--10-|-8--6--3--| 
B|-------4-----|--6--6--8-------|--------------------|----------| 
G|-3-----3--0--|--7-----8-----5-|-------------12--12-|-8--8-----| 
D|-------------|----------------|--------------------|----------| 
A|----1--------|----------------|--------------------|----------| 
E|-------3-----|----------------|--------------------|----------| 

e|-1-----1--3-|-6--4--6--4--3--6-|--8--8--11--10-----|--11--13--11-| 
B|-1--4-------|------------------|----------------11-|-------------| 
G|-------1--3-|------------------|--5---------7------|--12---------| 
D|------------|------------------|-------------------|-------------| 
A|------------|------------------|-------------------|-------------| 
E|------------|------------------|-------------------|-------------| 

e|-10--8--10--8--6-----|-----6--8--8--11--10-----|-11--13--15--15--| 
B|-11------------6--8--|--8-------------------11-|-----------------| 
G|---------------7--8--|--7----------------------|-----------------| 
D|-----8------------5--|--------6----------------|-----------------| 
A|---------------------|-------------------------|-----------------| 
E|---------------------|-------------------------|-----------------| 

e|-15--13--11--13--11-|-6----------------------|-6--3--1--1--3--6--8-| 
B|-13-----------------|-8--8--6--6-----8--6----|-4-----------4-------| 
G|--------------------|-------------8--------3-|-------3-----3-----5-| 
D|--------------------|-------8-----------3----|---------------------| 
A|--------------------|------------------------|---------------------| 
E|--------------------|------------------------|---------------------| 

e|-8--10--11--10--8--6-|-11-----------1--3--6-|-8--8--11--10-------| 
B|---------------------|-----8--6--4--------6-|---------------11---| 
G|-8------12--10--8----|-10--8--5-------------|-8---------10-------| 
D|-------------------8-|--------------3--1----|--------------------| 
A|---------------------|----------------------|--------------------| 
E|---------------------|----------------------|--------------------| 

e|-11--13--15--15-|--15--13--11--13--11--| 
B|----------------|--------------13--11--| 
G|-12--10--12--12-|--12--13--12--12--12--| 
D|----------------|----------------------| 
A|----------------|----------------------| 
E|----------------|----------------------| 


| /  slide up 
| \  slide down 
| h  hammer-on 
| p  pull-off 
| ~  vibrato 
| +  harmonic 
| x  Mute note 
		  

See also:

tabs Deep Purple - The Battle Rages On tabs Albert Hammond Jr - Miss Myrtle tabs Deep Purple - Rat Bat Blues tabs Albert Hammond Jr - Spooky Couch tabs Ira! - Tarde Vazia (Acústico) tabs Deep Purple - Stormbringer
e-chords

Other versions:

tabs Gustav Holst - Jupiter The Bringer Of Jollity
auto scroll beats size up size down change color hide chords drawings
tab show chords e-chords YouTube Clip e-chords hide all tabs e-chords go to top tab

share