Gus Johnson

Lost And Found

Gus Johnson

tabs

by  JESSGOMES

save to print version add songbook text version e-mail correct tuner
chordsukulelecavacokeyboardtabbassdrumsharmonicaflute Guitar Pro
close

there isn't a video lesson for this song

chords

Lost And Found

	  		Intro 

e|----------------------------------------| 
B|----------------------------------------| 
G|----------------------------------------| 
D|------0-----------0---------------------| 
A|-----------2---------0------0/2---------| 
E|--3------------2----------0-------------| 

e|----------------------------------------| 
B|----------------------------------------| 
G|----------------------------------------| 
D|----0h2p0-------------------------------| 
A|------------2---0---2---0---------------| 
E|-----------------------------2----------| 

e|----------------------------------------| 
B|----------------------------------------| 
G|----------------------------------------| 
D|------0-------------0-------------------| 
A|-----------2-----------0-----0/2--------| 
E|--3-------------2----------0------------| 

e|----------------------------------------| 
B|----------------------------------------| 
G|----------------------------------------| 
D|-----0h2p0------------------------------| 
A|-------------2---0---2---0---2---3------| 
E|----------------------------------------| 

e|-----------------------------------0----| 
B|---------0--------------3-------------3-| 
G|---0---------0--------------2-----------| 
D|------2----------2--0-------------------| 
A|----------------------------------------| 
E|----------------------------------------| 

e|----------------------------------------| 
B|----------------------------------------| 
G|------------------------0---------------| 
D|-------------------0h2-----2------------| 
A|---------------0/2----------------------| 
E|---3---2---0----------------------------| 

e|----------------------------------------| 
B|----------------------------------------| 
G|-----------------0----------------------| 
D|------------0h2-------------------------| 
A|--------0/2----------0--2--0------------| 
E|---0----------------------------2---3---| 



************************************ 

| /  Slide up 
| h  Hammer-on 
| p  Pull-off 

************************************ 
		  

See also:

tabs Deep Purple - Smoke on the water (ver. 3) tabs Albert Hammond Jr - Holiday tabs Deep Purple - When a Blind man cries tabs Deep Purple - The Unwritten Law tabs Deep Purple - Highway Star tabs Ira! - Núcleo Base ( Acústico MTV)
e-chords

Other versions:

tabs Eric Clapton - Lost and found tabs Randy Rogers - Lost And Found tabs Lianne La Havas - Lost And Found tabs Gus Johnson - Lost And Found
auto scroll beats size up size down change color hide chords drawings
tab show chords e-chords YouTube Clip e-chords hide all tabs e-chords go to top tab

share