Garth Brooks

If Tomorrow Never Comes.(ver.2)

Garth Brooks

tabs

save to print version add songbook text version e-mail correct tuner
chordsukulelecavacokeyboardtabbassdrumsharmonicaflute Guitar Pro
close

there isn't a video lesson for this song

chords

If Tomorrow Never Comes.(ver.2)

Year: 1989 -

(K. Blazy / G. Brooks)

	  		Garth Brooks:   
If Tomorrow Never Comes.(2)  
hope this helps  
  
  
e--------------------3-------------------------------------  
b--0---0----3-----1--0-------------------------------------  
g-----0------0-------0-------------------------------------  
d----0--2/4----0h2---0-------------------------------------  
a--------------------2-------------------------------------  
e--3-----------------3-------------------------------------  
  
verses:  
e-------------------------------0------0h2------3---3------  
b---------------------------0h1--0----3---3------3---3-----  
g--------------------------2---0-----2-----2---------------  
d-------------------------2---------0-------0--2---0-------  
a------------------------0--------------------3------------  
e-------------------------------------------------3--------  
  sometimes late at night.............  
  
e-----3---3-------2----0-----2------3--------------------3-  
b------3---3-----3-2----1---3-2------3-----0----3-----1--0-  
g----0----------2----------2--------------0------0-------0-  
d-0h2----0-----0------2---0-------2------0---2/4---0h2---0-  
a--------------------0-----------3-----------------------2-  
e-------3-------------------------------3----------------3-  
  
chorus:  
  
                    C                               G  
If tomorrow never comes, will she know how much I loved her.  
                    D       Am          D  
did i try in every way, to show her everyday.  
      c             G  
that she's my only one.  
                     C                               D  
and if my time on earth were through, and she must face this   
         Em  
world without me.  
                                Am                       D  
is the love i gave her in the past, gonna be enough to last.  
      C             G  
if tomorrow never comes.  
  


		  

Full key step upFull key step up
Half key step upHalf key step up
Half key step downHalf key step down
Full key step downFull key step down
hide glossary

See also:

tabs Theme Songs - Mario Bros. tabs Hot Apple Pie - Hillbillies tabs James Taylor - Youve Got A Friend (ver. 2) tabs Kenny Chesney - I Go Back tabs Garth Brooks - If Tomorrow Never Comes.(ver.2) tabs Alan Jackson - Chattahoochee Correct
e-chords

Other versions:

tabs Garth Brooks - If Tomorrow Never Comes.(ver.2)
auto scroll beats size up size down change color hide chords drawings
tab show chords e-chords YouTube Clip e-chords hide all tabs e-chords go to top tab

share