Game of Thrones

Theme

Game of Thrones

tabs Beginner beginner

by  ACELOT

save to print version add songbook text version e-mail correct tuner
chordsukulelecavacokeyboardtabbassdrumsharmonicaflute Guitar Pro
close
by-game-of-thrones

there is a video lesson for this song

chords

Theme

(Ramin Djawadi)

Key:  C More
Theme Key GG
Theme Key G#G#
Theme Key AA
Theme Key A#A#(one step down)
Theme Key BB(half step down)
Theme Key CC(original key)
Theme Key C#C#(half step up)
Theme Key DD(one step up)
Theme Key D#D#
Theme Key EE
Theme Key FF
Theme Key F#F#
	  		
Intro: C5  


e|----------------------------------------------|  
B|----------------------------------------------|  
G|-----------0----------0----------0----------0-|  
D|-------1h3--------1h3--------1h3--------1h3---|  
A|---3-3--------3-3--------3-3--------3-3-------|  
E|----------------------------------------------|  

e|----------------------------------------------|  
B|----------------------------------------------|  
G|-----------0----------0----------0----------0-|  
D|-------2h3--------2h3--------2h3--------2h3---|  
A|---3-3--------3-3--------3-3--------3-3-------|  
E|----------------------------------------------|  

Tema:  

e|------------------------------|  
B|------------------------------|  
G|----------------0-------------|  
D|---5-------1h3--------1h3---0-|  
A|---6---3-----------3----------|  
E|-------3-----------3--------3-|  

e|----------------------------------------------|  
B|----------------------------------------------|  
G|-----------0----------0----------0----------0-|  
D|-------1h3--------1h3--------1h3--------1h3---|  
A|---3-3--------3-3--------3-3--------3-3-------|  
E|----------------------------------------------|  

e|---------------------------|  
B|---------------------------|  
G|---------------------------|  
D|---3------1p0-3-----1p0----|  
A|---1--1----------1-------3-|  
E|-------------------------1-|  

e|----------------------------------------------|  
B|----------------------------------------------|  
G|-----------0----------0----------0----------0-|  
D|-------1h3--------1h3--------1h3--------1h3---|  
A|---3-3--------3-3--------3-3--------3-3-------|  
E|----------------------------------------------|  


Oitava Acima:  

e|--------------------------------------------------------------|  
B|---8-----4/6--8------4h6---3----------3----------3----------3-|  
G|---8--5--5/7--8---5---------------3h5--------3h5--------3h5---|  
D|------5-----------5-----------5-5--------5-5--------5-5-------|  
A|--------------------------------------------------------------|  
E|---------------------------3----------------------------------|  

e|----1---------1---------------|  
B|----------4\3----------4p3----|  
G|-------3-----------3--------5-|  
D|----------------------------5-|  
A|----1-----------------------3-|  
E|------------------------------|  

Mais uma oitava Acima:  

e|---15-----15-------11h13--15------11h13----10-|  
B|--------------13--------------13-----------11-|  
G|-------0------------------------------------0-|  
D|----------------------------------------------|  
A|-------------------------------------------10-|  
E|----------------------------------------------|  

e|---13--------11-----------10-----------8---------6---------8--|  
B|--------11-------11-----------11----------8---------6------8--|  
G|----------------------10-----------10--------8---------7---8--|  
D|-----------------------------------------------------------10-|  
A|---13---------------------------------------------------------|  
E|--------------------------------------------------------------|  


Refrão:  

e|---8-------------6h8----6------------4h6----4--------------------3-|  
B|---------9--9-----------------6--6----------------1--1--------1--4-|  
G|------8--------------------5-------------------1-----------3-----5-|  
D|---6----------------------------------------3-----------1--------5-|  
A|------------------------6----------------------------3-----------3-|  
E|-------------------------------------------------------------------|  

e|--------------------------------------------------|  
B|----------4--4----------4---------4---------4--4--|  
G|-------3-------------3---------3---------5--------|  
D|----------------------------3---------5-----------|  
A|------------------6-------------------------------|  
E|---4----------------------------------------------|  

e|---8-------------6h8----6------------4h6----4--------------------|  
B|---------9--9-----------------6--6----------------1--1--------1--|  
G|------8--------------------5-------------------1-----------3-----|  
D|---6----------------------------------------3-----------1--------|  
A|------------------------6----------------------------3-----------|  
E|-----------------------------------------------------------------|  

e|----3------------------------------------------|  
B|----4----------4--4----------4-----------------|  
G|----5-------3-------------3---------3----------|  
D|----5-----------------------------------1p0----|  
A|----3------------------6---------5-----------3-|  
E|--------4--------------------------------------|  

		  

Full key step upFull key step up
Half key step upHalf key step up
Half key step downHalf key step down
Full key step downFull key step down
auto scroll beats size up size down change color hide chords drawings
tab show chords e-chords YouTube Clip e-chords hide all tabs e-chords go to top tab

share