Folkslave

Negromonte

Folkslave

tabs

by  ABELAMIN

save to print version add songbook text version e-mail correct tuner
chordsukulelecavacokeyboardtabbassdrumsharmonicaflute Guitar Pro
close

there isn't a video lesson for this song

chords

Negromonte

	  		Viol„o Intro. 

     Q    Q    H           Q    Q    H           Q    Q    H 
 
E|---------------------|---------------------|---------------------| 
B|---------------------|---------------------|---------------------| 
G|---------------------|---------------------|---------------------| 
D|------------2--------|------------2--------|------------2--------| 
A|-------2-------------|-------2-------------|-------2-------------| 
E|--0------------------|--0------------------|--0------------------| 
 

  Q    Q    H           Q    Q    H           Q    Q    H 
 
---------------------|---------------------|---------------------| 
---------------------|---------------------|---------------------| 
---------------------|---------------------|---------------------| 
------------2--------|------------0--------|------------0--------| 
-------2-------------|-------3-------------|-------3-------------| 
--0------------------|--3------------------|--3------------------| 
 

  Q    Q    H           Q    Q    H           Q    Q    H 
 
---------------------|---------------------|---------------------| 
---------------------|---------------------|---------------------| 
---------------------|---------------------|---------------------| 
------------0--------|------------0--------|------------2--------| 
-------3-------------|-------3-------------|-------2-------------| 
--3------------------|--3------------------|--0------------------| 
 

  Q    Q    H           Q    Q    H           Q    Q    H 
 
---------------------|---------------------|---------------------| 
---------------------|---------------------|---------------------| 
---------------------|---------------------|---------------------| 
------------2--------|------------2--------|------------2--------| 
-------2-------------|-------2-------------|-------2-------------| 
--0------------------|--0------------------|--0------------------| 
 

  Q    Q    H           Q    Q    H           Q    Q    H 
 
---------------------|---------------------|---------------------| 
---------------------|---------------------|---------------------| 
---------------------|---------------------|---------------------| 
------------0--------|------------0--------|------------0--------| 
-------3-------------|-------3-------------|-------3-------------| 
--3------------------|--3------------------|--3------------------| 
 

  Q    Q    H           Q    Q    H           Q    Q    H 
 
---------------------|---------------------|---------------------| 
---------------------|---------------------|---------------------| 
---------------------|---------------------|---------------------| 
------------0--------|------------7--------|------------7--------| 
-------3-------------|-------7-------------|-------7-------------| 
--3------------------|--5------------------|--5------------------| 
 

  Q    Q    H           Q    Q    H           Q    Q    H 
 
---------------------|---------------------|---------------------| 
---------------------|---------------------|---------------------| 
---------------------|---------------------|---------------------| 
------------7--------|------------7--------|------------5--------| 
-------7-------------|-------7-------------|-------5-------------| 
--5------------------|--5------------------|--3------------------| 
 

  Q    Q    H           Q    Q    H           Q    Q    H 
 
---------------------|---------------------|---------------------| 
---------------------|---------------------|---------------------| 
---------------------|---------------------|---------------------| 
------------5--------|------------5--------|------------5--------| 
-------5-------------|-------5-------------|-------5-------------| 
--3------------------|--3------------------|--3------------------| 
 

  Q    Q    H           Q    Q    H           Q    Q    H 
 
---------------------|---------------------|---------------------| 
---------------------|---------------------|---------------------| 
---------------------|---------------------|---------------------| 
------------7--------|------------7--------|------------7--------| 
-------7-------------|-------7-------------|-------7-------------| 
--5------------------|--5------------------|--5------------------| 
 

  Q    Q    H           Q    Q    H           Q    Q    H 
 
---------------------|---------------------|---------------------| 
---------------------|---------------------|---------------------| 
---------------------|---------------------|---------------------| 
------------7--------|------------5--------|------------5--------| 
-------7-------------|-------5-------------|-------5-------------| 
--5------------------|--3------------------|--3------------------| 
 
                                               ^ 
  Q    Q    H           Q    Q    Q    Q       W 
 
---------------------|----------------------|-------------------| 
---------------------|----------------------|-------------------| 
---------------------|----------------------|--0----------------| 
------------5--------|------------5---------|--2----------------| 
-------5-------------|-------5---------5----|--2----------------| 
--3------------------|--3-------------------|--0----------------| 
 

Guitarra DistorÁ„o. 

 PM PM      PM PM         PM PM      PM PM         PM PM      PM PM 
  E  E  Q    E  E  Q       E  E  Q    E  E  Q       E  E  Q    E  E  Q 
 
------------------------|------------------------|------------------------| 
------------------------|------------------------|------------------------| 
------------------------|------------------------|------------------------| 
------------------------|------------------------|------------------------| 
--------2----------2----|--------2----------2----|--------3----------3----| 
--0--0--0----0--0--0----|--0--0--0----0--0--0----|--3--3--3----3--3--3----| 
 

  PM PM      PM PM         PM PM      PM PM         PM PM      PM PM 
  E  E  Q    E  E  Q       E  E  Q    E  E  Q       E  E  Q    E  E  Q 
 
------------------------|------------------------|------------------------| 
------------------------|------------------------|------------------------| 
------------------------|------------------------|------------------------| 
------------------------|------------------------|------------------------| 
--------3----------3----|--------2----------2----|--------2----------2----| 
--3--3--3----3--3--3----|--0--0--0----0--0--0----|--0--0--0----0--0--0----| 
 

  PM PM      PM PM         PM PM      PM PM         PM PM      PM PM 
  E  E  Q    E  E  Q       E  E  Q    E  E  Q       E  E  Q    E  E  Q 
 
------------------------|------------------------|------------------------| 
------------------------|------------------------|------------------------| 
------------------------|------------------------|------------------------| 
------------------------|------------------------|------------------------| 
--------3----------3----|--------3----------3----|--------2----------2----| 
--3--3--3----3--3--3----|--3--3--3----3--3--3----|--0--0--0----0--0--0----| 
 

  PM PM      PM PM         PM PM      PM PM         PM PM      PM PM 
  E  E  Q    E  E  Q       E  E  Q    E  E  Q       E  E  Q    E  E  Q 
 
------------------------|------------------------|------------------------| 
------------------------|------------------------|------------------------| 
------------------------|------------------------|------------------------| 
------------------------|------------------------|------------------------| 
--------2----------2----|--------3----------3----|--------3----------3----| 
--0--0--0----0--0--0----|--3--3--3----3--3--3----|--3--3--3----3--3--3----| 
 

  PM PM      PM PM         PM PM      PM PM         PM PM      PM PM 
  E  E  Q    E  E  Q       E  E  Q    E  E  Q       E  E  Q    E  E  Q 
 
------------------------|------------------------|------------------------| 
------------------------|------------------------|------------------------| 
------------------------|------------------------|------------------------| 
------------------------|------------------------|------------------------| 
--------2----------2----|--------2----------2----|--------3----------3----| 
--0--0--0----0--0--0----|--0--0--0----0--0--0----|--3--3--3----3--3--3----| 
 

  PM PM      PM PM         PM PM      PM PM         PM PM      PM PM 
  E  E  Q    E  E  Q       E  E  Q    E  E  Q       E  E  Q    E  E  Q 
 
------------------------|------------------------|------------------------| 
------------------------|------------------------|------------------------| 
------------------------|------------------------|------------------------| 
------------------------|------------------------|------------------------| 
--------3----------3----|--------2----------2----|--------2----------2----| 
--3--3--3----3--3--3----|--0--0--0----0--0--0----|--0--0--0----0--0--0----| 
 

  PM PM      PM PM 
 
   E  E  Q    E  E  E     E  E  E  E  E  E  E  E 
----------------------|--------------------------|-------| 
----------------------|--------------------------|-------| 
----------------------|--------------------------|-------| 
----------------------|--------------------------|-------| 
--------3----------3--|--3--3--3--3--3--3--3--3--|-------| 
--3--3--3----3--3--3--|--3--3--3--3--3--3--3--3--|-------| 
 

 
   E  E  E  E  E  E  E  E     E  E  E  E  E  E  E  E 
--------------------------|---------------------------| 
--------------------------|---------------------------| 
--------------------------|---------------------------| 
--7--7--7--7--7--7--7--7--|--7--7--7--7--7--7--7--7\--| 
--7--7--7--7--7--7--7--7--|--7--7--7--7--7--7--7--7\--| 
--5--5--5--5--5--5--5--5--|--5--5--5--5--5--5--5--5\--| 
 

 
   E  E  E  E  E  E  E  E     E  E  E  E  E  E  E  E 
--------------------------|---------------------------| 
--------------------------|---------------------------| 
--------------------------|---------------------------| 
--5--5--5--5--5--5--5--5--|--5--5--5--5--5--5--5--5/--| 
--5--5--5--5--5--5--5--5--|--5--5--5--5--5--5--5--5/--| 
--3--3--3--3--3--3--3--3--|--3--3--3--3--3--3--3--3/--| 
 

 
   E  E  E  E  E  E  E  E     E  E  E  E  E  E  E  E 
--------------------------|---------------------------| 
--------------------------|---------------------------| 
--------------------------|---------------------------| 
--7--7--7--7--7--7--7--7--|--7--7--7--7--7--7--7--7\--| 
--7--7--7--7--7--7--7--7--|--7--7--7--7--7--7--7--7\--| 
--5--5--5--5--5--5--5--5--|--5--5--5--5--5--5--5--5\--| 
 

 
   E  E  E  E  E  E  E  E     E  E  E  E  E  E  E  E 
--------------------------|---------------------------| 
--------------------------|---------------------------| 
--------------------------|---------------------------| 
--5--5--5--5--5--5--5--5--|--5--5--5--5--5--5--5--5/--| 
--5--5--5--5--5--5--5--5--|--5--5--5--5--5--5--5--5/--| 
--3--3--3--3--3--3--3--3--|--3--3--3--3--3--3--3--3/--| 
 

 
   E  E  E  E  E  E  E  E     E  E  E  E  E  E  E  E 
--------------------------|---------------------------| 
--------------------------|---------------------------| 
--------------------------|---------------------------| 
--7--7--7--7--7--7--7--7--|--7--7--7--7--7--7--7--7\--| 
--7--7--7--7--7--7--7--7--|--7--7--7--7--7--7--7--7\--| 
--5--5--5--5--5--5--5--5--|--5--5--5--5--5--5--5--5\--| 
 

 
   E  E  E  E  E  E  E  E     E  E  E  E  E  E  E  E 
--------------------------|---------------------------| 
--------------------------|---------------------------| 
--------------------------|---------------------------| 
--5--5--5--5--5--5--5--5--|--5--5--5--5--5--5--5--5/--| 
--5--5--5--5--5--5--5--5--|--5--5--5--5--5--5--5--5/--| 
--3--3--3--3--3--3--3--3--|--3--3--3--3--3--3--3--3/--| 
 

 
   E  E  E  E  E  E  E  E     E  E  E  E  E  E  E  E 
--------------------------|---------------------------| 
--------------------------|---------------------------| 
--------------------------|---------------------------| 
--7--7--7--7--7--7--7--7--|--7--7--7--7--7--7--7--7\--| 
--7--7--7--7--7--7--7--7--|--7--7--7--7--7--7--7--7\--| 
--5--5--5--5--5--5--5--5--|--5--5--5--5--5--5--5--5\--| 
 
                                                         PM PM      PM PM 
  E  E  E  E  E  E  E  E     E  E  E  E  E  E  E  E      E  E  Q    E  E  Q 
 
--------------------------|---------------------------|------------------------| 
--------------------------|---------------------------|------------------------| 
--------------------------|---------------------------|------------------------| 
--5--5--5--5--5--5--5--5--|--5--5--5--5--5--5--5--5/--|------------------------| 
--5--5--5--5--5--5--5--5--|--5--5--5--5--5--5--5--5/--|--------2----------2----| 
--3--3--3--3--3--3--3--3--|--3--3--3--3--3--3--3--3/--|--0--0--0----0--0--0----| 
 

  PM PM      PM PM         PM PM      PM PM         PM PM      PM PM 
  E  E  Q    E  E  Q       E  E  Q    E  E  Q       E  E  Q    E  E  Q 
 
------------------------|------------------------|------------------------| 
------------------------|------------------------|------------------------| 
------------------------|------------------------|------------------------| 
------------------------|------------------------|------------------------| 
--------2----------2----|--------3----------3----|--------3----------3----| 
--0--0--0----0--0--0----|--3--3--3----3--3--3----|--3--3--3----3--3--3----| 
 

  PM PM      PM PM         PM PM      PM PM         PM PM      PM PM 
  E  E  Q    E  E  Q       E  E  Q    E  E  Q       E  E  Q    E  E  Q 
 
------------------------|------------------------|------------------------| 
------------------------|------------------------|------------------------| 
------------------------|------------------------|------------------------| 
------------------------|------------------------|------------------------| 
--------2----------2----|--------2----------2----|--------3----------3----| 
--0--0--0----0--0--0----|--0--0--0----0--0--0----|--3--3--3----3--3--3----| 
 

                        PM PM      PM PM         PM PM      PM PM 
   W                    E  E  Q    E  E  Q       E  E  Q    E  E  Q 
 
---------------------|------------------------|------------------------| 
---------------------|------------------------|------------------------| 
---------------------|------------------------|------------------------| 
---------------------|------------------------|------------------------| 
--12/----------------|--------2----------2----|--------2----------2----| 
--12/----------------|--0--0--0----0--0--0----|--0--0--0----0--0--0----| 
 

  PM PM      PM PM         PM PM      PM PM         PM PM      PM PM 
  E  E  Q    E  E  Q       E  E  Q    E  E  Q       E  E  Q    E  E  Q 
 
------------------------|------------------------|------------------------| 
------------------------|------------------------|------------------------| 
------------------------|------------------------|------------------------| 
------------------------|------------------------|------------------------| 
--------3----------3----|--------3----------3----|--------2----------2----| 
--3--3--3----3--3--3----|--3--3--3----3--3--3----|--0--0--0----0--0--0----| 
 

  PM PM      PM PM         PM PM      PM PM 
 
   E  E  Q    E  E  Q       E  E  Q    E  E  Q       E  E  E  E  E  E  E 
------------------------|------------------------|-----------------------| 
------------------------|------------------------|-----------------------| 
------------------------|------------------------|-----------------------| 
------------------------|------------------------|-----------------------| 
--------2----------2----|--------3----------3----|--3--3--3--3--3--3--3--| 
--0--0--0----0--0--0----|--3--3--3----3--3--3----|--3--3--3--3--3--3--3--| 
 

 
   E  E  E  E  E  E  E  E     E  E  E  E  E  E  E  E 
--------------------------|---------------------------| 
--------------------------|---------------------------| 
--------------------------|---------------------------| 
--7--7--7--7--7--7--7--7--|--7--7--7--7--7--7--7--7\--| 
--7--7--7--7--7--7--7--7--|--7--7--7--7--7--7--7--7\--| 
--5--5--5--5--5--5--5--5--|--5--5--5--5--5--5--5--5\--| 
 

 
   E  E  E  E  E  E  E  E     E  E  E  E  E  E  E  E 
--------------------------|---------------------------| 
--------------------------|---------------------------| 
--------------------------|---------------------------| 
--5--5--5--5--5--5--5--5--|--5--5--5--5--5--5--5--5/--| 
--5--5--5--5--5--5--5--5--|--5--5--5--5--5--5--5--5/--| 
--3--3--3--3--3--3--3--3--|--3--3--3--3--3--3--3--3/--| 
 

 
   E  E  E  E  E  E  E  E     E  E  E  E  E  E  E  E 
--------------------------|---------------------------| 
--------------------------|---------------------------| 
--------------------------|---------------------------| 
--7--7--7--7--7--7--7--7--|--7--7--7--7--7--7--7--7\--| 
--7--7--7--7--7--7--7--7--|--7--7--7--7--7--7--7--7\--| 
--5--5--5--5--5--5--5--5--|--5--5--5--5--5--5--5--5\--| 
 

 
   E  E  E  E  E  E  E  E     E  E  E  E  E  E  E  E 
--------------------------|---------------------------| 
--------------------------|---------------------------| 
--------------------------|---------------------------| 
--5--5--5--5--5--5--5--5--|--5--5--5--5--5--5--5--5/--| 
--5--5--5--5--5--5--5--5--|--5--5--5--5--5--5--5--5/--| 
--3--3--3--3--3--3--3--3--|--3--3--3--3--3--3--3--3/--| 
 

 
   E  E  E  E  E  E  E  E     E  E  E  E  E  E  E  E 
--------------------------|---------------------------| 
--------------------------|---------------------------| 
--------------------------|---------------------------| 
--7--7--7--7--7--7--7--7--|--7--7--7--7--7--7--7--7\--| 
--7--7--7--7--7--7--7--7--|--7--7--7--7--7--7--7--7\--| 
--5--5--5--5--5--5--5--5--|--5--5--5--5--5--5--5--5\--| 
 

 
   E  E  E  E  E  E  E  E     E  E  E  E  E  E  E  E 
--------------------------|---------------------------| 
--------------------------|---------------------------| 
--------------------------|---------------------------| 
--5--5--5--5--5--5--5--5--|--5--5--5--5--5--5--5--5/--| 
--5--5--5--5--5--5--5--5--|--5--5--5--5--5--5--5--5/--| 
--3--3--3--3--3--3--3--3--|--3--3--3--3--3--3--3--3/--| 
 

 
   E  E  E  E  E  E  E  E     E  E  E  E  E  E  E  E 
--------------------------|---------------------------| 
--------------------------|---------------------------| 
--------------------------|---------------------------| 
--7--7--7--7--7--7--7--7--|--7--7--7--7--7--7--7--7\--| 
--7--7--7--7--7--7--7--7--|--7--7--7--7--7--7--7--7\--| 
--5--5--5--5--5--5--5--5--|--5--5--5--5--5--5--5--5\--| 
 

  E  E  E  E  E  E  E  E     E  E  E  E  E  E  E  E      W 
 
--------------------------|---------------------------|-------------------| 
--------------------------|---------------------------|-------------------| 
--------------------------|---------------------------|-------------------| 
--5--5--5--5--5--5--5--5--|--5--5--5--5--5--5--5--5/--|--2----------------| 
--5--5--5--5--5--5--5--5--|--5--5--5--5--5--5--5--5/--|--2----------------| 
--3--3--3--3--3--3--3--3--|--3--3--3--3--3--3--3--3/--|--0----------------| 
 

          W                   W                   H        H 
 
-------|-------------------|-------------------|--------------------| 
-------|-------------------|-------------------|--------------------| 
-------|-------------------|-------------------|--------------------| 
-------|--2----------------|--2----------------|--2--------2--------| 
-------|--2----------------|--2----------------|--2--------2--------| 
-------|--0----------------|--0----------------|--0--------0--------| 
 

 
   H        H           Q    Q    Q    Q       E  E  E  E  E  E  E  E 
--------------------|----------------------|--------------------------| 
--------------------|----------------------|--------------------------| 
--------------------|----------------------|--------------------------| 
--2--------2--------|--2----2----2----2----|--2--2--2--2--2--2--2--2--| 
--2--------2--------|--2----2----2----2----|--2--2--2--2--2--2--2--2--| 
--0--------0--------|--0----0----0----0----|--0--0--0--0--0--0--0--0--| 
 

   Q      Q      Q      E   E   S E   S E   S E   S 
 
----------------------------------------------------| 
--12S----12S----12S----12S--L---L-L---L-L---L-L---L-| 
--11S----11S----11S----11S--L---L-L---L-L---L-L---L-| 
----------------------------------------------------| 
----------------------------------------------------| 
----------------------------------------------------| 
 

   Slide 
   |----3---|  |---3--|  |---3--|  |---3--| 
 
    E    E   E  E  E   E  E  E   E  E  E   E 
----------------------------------------------| 
--------9--10--9-----12-----------------------| 
--10--------------9------9--8--11--9--8-------| 
-----------------------------------------11S--| 
----------------------------------------------| 
----------------------------------------------| 
 

                                                            |-3-| 
  S    S    S S  S  S S S  T T  T  T T  T  T T  T T   T  T  S S S 
 
----<>12-<>11-9--------------9------------------------------------| 
--9-------------12-10-9---12---12-10-9-12-10-9----9h-10p-9--------| 
------------------------9----------------------11----------11-9-8-| 
------------------------------------------------------------------| 
------------------------------------------------------------------| 
------------------------------------------------------------------| 
 

  X   X  X  S S    S X   T  T S S S S S  S   S  S S S S 
 
--------------------------------------------------------| 
--9h-10p-9----9-<>10-9h-10p-9---------9-10-<>9----------| 
-----------11-----------------9-8-9-9----------11-9-8-9-| 
--------------------------------------------------------| 
--------------------------------------------------------| 
--------------------------------------------------------| 
 

 
    E   S  S  S S  S S  E.    S Q         E   E   E   E   E   E   E   E 
-------------------------------------|--12----------12----------12------| 
--12--10-10-10-9---------------------|------12----------12----------12--| 
-----------------11-9-11br---L-9~----|----------12----------13----------| 
-------------------------------------|----------------------------------| 
-------------------------------------|----------------------------------| 
-------------------------------------|----------------------------------| 
 

   \1/ 
   W 
 
--------------------| 
--------------------| 
--14----------------| 
--------------------| 
--------------------| 
--------------------| 
 

    Pentatonic G scale 
   |----------3----------|  |--3--|  |--3--|  |--3--|  |--3--|  |--3--|  |--3--| 
   S                  S  S  S  S  S  S  S  S  S  S  S  S  S  S  S  S  S  S  S  S 
 
--15-----------------12-15-12-15-12-15------------------------------------------ 
 
---------------------------------------15-12-15-12-15-12-15------ 
--------------- 
 
------------------------------------------------------------14-12-14-12--------- 
------------------------------------------------------------------------14-12-14 
----------------------------------------------------------------- 
--------------- 
 
----------------------------------------------------------------- 
--------------- 
 

   Chromatic G SCale 
   S                 S  S  S  S  S  S  S  S  S  S  S  S  S  S  S 
 
--15----------------14-12----------------------------------------| 
--------------------------15-13-12-------------------------------| 
-----------------------------------14-13-12----------------------| 
--------------------------------------------14-13-12-------------| 
-----------------------------------------------------14-13-12-14-| 
-----------------------------------------------------------------| 
 

                                                     |-3-| |--3-| |-3-| 3  3 
   S  S  S  S  S  S  S  S   E   S  S  S  S  S  S     S S S S S  S S S S S  S 
 
-------------------------------------------------|-----------7-10-7----------| 
-------------------------------------------12-15-|---------8--------8--------| 
-------------------------------------12-14-------|-------7------------7------| 
-------------------------------12-14-------------|-----9----------------9----| 
--13-12-14-13-12-14-13-12~--L--------------------|--10--------------------10-| 
-------------------------------------------------|---------------------------| 
 

   |-3-| |--3-| |-3-| 3  3 
   S S S S S  S S S S S  S 
 
-----------7-10-7----------| 
---------8--------8--------| 
-------7------------7------| 
-----9----------------9----| 
--10--------------------10-| 
---------------------------| 
 

                 sweep de G 
   |-3-| |--3-| |------3-----| |--3-| |--3-| |-3-| |-3-| |--3-| 
   S S S S S  S S          S S S  S S S  S S S S S S S S S S  S 
-----------7-10-7------------------------------------7-----7-10-| 
---------8-----------------8-------------------8---8-----8------| 
-------7---------------------7--------7------7---7-----7--------| 
-----9-------------------------9----9------9--------------------| 
--10-----------------------------10-----10----------------------| 
----------------------------------------------------------------| 

  |--3--|  |--3--|  |--3--|  |---3--|   |----3----| |---3---| |-3-| |-3-| |-3-| 
  S  S  S  S  S  S  S  S  S  S  S   S   S   Q     S S S T X X X X X X X X X X X 
 
--7-10-12-15-10-15-17-12-15-17-19~-19~-19~-19~----L-L-L-L-L-L-L-L-L-L-L-L-L-L-L- 
-------------------------------------------------------------------------------- 
 
----------------------------------------------------------------- 
--------------- 
 
----------------------------------------------------------------- 
--------------- 
 
----------------------------------------------------------------- 
--------------- 
 
----------------------------------------------------------------- 
--------------- 
 

    Pentatonic G scale 
   |----------3----------|  |--3--|  |--3--|  |--3--|  |--3--|  |--3--|  |--3--| 
   S                  S  S  S  S  S  S  S  S  S  S  S  S  S  S  S  S  S  S  S  S 
 
--15-----------------12-15-12-15-12-15------------------------------------------ 
 
---------------------------------------15-12-15-12-15-12-15------ 
--------------- 
 
------------------------------------------------------------14-12-14-12--------- 
------------------------------------------------------------------------14-12-14 
----------------------------------------------------------------- 
--------------- 
 
----------------------------------------------------------------- 
--------------- 
 

   |--3--|  |--3--|  |---3---|    |----3---|    |--3-|  3                 3 3 
   S  S  S  S  S  S  E   E   E    E    E   E    E    S  W                 S S 
 
--------------------12--15--12---12---12--12---12-----------------------------|| 
--------------12-15---------15b--15b--12--15b--15b--12-15~----------------L-L-|| 
--------12-14-----------------------------------------------------------------|| 
--12-14-----------------------------------------------------------------------|| 
------------------------------------------------------------------------------|| 
------------------------------------------------------------------------------|| 
 

Duration Legend 
 
--------------- 
 
W - whole 
H - half 
Q - quarter 
E|- 8th 
S - 16th 
T - 32nd 
X - 64th 
. - note dotted 
|-n-|  - n-tuplets 


Tablature Legend 
- 
--------------- 
 
L - tied note 
x - dead note 
G|- grace note 
(n) - ghost note 
> - accentuded note 
NH - natural harmonic 
AH - artificial harmonic 
TH - tapped harmonic 
SH - semi harmonic 
PH - pitch harmonic 
h - hammer on 
p - pull off 
B|- bend 
br - bendRelease 
pb - preBend 
pbr - preBendRelease 
brb - bendReleaseBend 
\n/ - tremolo bar dip 
\n - tremolo bar dive 
-/n - tremolo bar Release up 
/n\ - tremolo bar inverted dip 
/n - tremolo bar return 
-\n - tremolo bar Release down 
S - shift slide 
s - legato slide 
/ -  slide into from below or out of upwards 
\ -  slide into from above or out of downwards 
~ - vibrato 
W - wide vibrato 
tr - trill 
TP - tremolo picking 
T - tapping 
S - slap 
P - pop 
< - fade in 
^ - brush up 
v - brush down 
		  

See also:

tabs Deep Purple - Perfect Strangers tabs Deep Purple - Smoke on the water (intro) tabs Ira! - Nucleo De Base tabs Deep Purple - Smoke on the Water (solo) tabs Ira! - Flerte Fatal (intro e solo) tabs Deep Purple - Smoke On The Water
e-chords

Other versions:

tabs Folkslave - Negromonte
auto scroll beats size up size down change color hide chords drawings
tab show chords e-chords YouTube Clip e-chords hide all tabs e-chords go to top tab

share