Famous Last Words

The Show Must Go On Pt.1

Famous Last Words

tabs Expert expert

by  HUGO_RODRIGUES

save to print version add songbook text version e-mail correct tuner
chordsukulelecavacokeyboardtabbassdrumsharmonicaflute Guitar Pro
close

there isn't a video lesson for this song

chords

The Show Must Go On Pt.1

	  		The Show Must Go On Pt.1 

Intro 1: No guitar "I must accept these consequences..." 
Intro 2: "I am dead now! The nightmare is...." 
 
D|-----------------------------------------------------------------------| 
A|-----------------------------------------------------------------------| 
F|-----------------------------------------------------------------------| 
C|--5-5-5----5-5-5----5-5-5----5-5-5------------12-10--------------------| 
G|--5-5-5----5-5-5----5-5-5----5-5-5-----12-10-9-----13-12---------------| 
C|--5-5-5----5-5-5----5-5-5----5-5-5-------------------------------------| 
 

 
Pre-verse/Pre-Chorus "My inner demon is screaming at me...." 
D|--------------------------------------------------------------------------| 
A|--------------------------------------------------------------------------| 
F|--------------------------------------------------------------------------| 
C|-----5555555555555555-8888888888888888-1111111111111111-4444444444444444--| 
G|-----5555555555555555-8888888888888888-1111111111111111-4444444444444444--| 
C|-----5555555555555555-8888888888888888-1111111111111111-4444444444444444--| 
 
                                                1's 
verse 1: 
 
D|-----------------------------------------------------------------------| 
A|-----------------------------------------------------------------------| 
F|-(7)----------(6)------------------------------------------------------| 
C|--5------------4----------5-5-5------------8-8------4-----4-4-4--------| 
G|--5------------4----------5-5-5--55555555--8-8--444-4-444-4-4-4--------| 
C|--5------------4----------5-5-5--55555555--8-8--444-4-444-4-4-4--------| 
 
                                   xxxxxxxx       xxx   xxx 
 
D|-----------------------------------------------------------------------| 
A|-----------------------------------------------------------------------| 
F|-----------------------------------------------------------------------| 
C|-----------1-1------8-----4/5------------------------------------------| 
G|--44444444-1-1-111--8-888-4/5------------------------------------------| 
C|--44444444-1-1-111--8-888-4/5------------------------------------------| 
 
    xxxxxxxx     xxx    xxx 

Pre-Chorus 2: 

 
D|-----------------------------------------------------------------------| 
A|-----------------------------------------------------------------------| 
F|-----------------------------------------------------------------------| 
C|-----------------------------------------------------------------------| 
G|--1-111-111-111-111-111-111-111-0-000-000-000-000-000-000-000----------| 
C|--1-111-111-111-111-111-111-111-0-000-000-000-000-000-000-000----------| 
 
    x xxx xxx xxx xxx xxx xxx xxx x xxx xxx xxx xxx xxx xxx xxx 
                 1's 
Pre-Chorus 1 

Chorus 1: "Don't let me down! ..." 
 
D|------------------------------------------------------------------------| 
A|------------------------------------------------------------------------| 
F|------------------------------------------------------------------------| 
C|-55555555-88888888-33333333-111111-44/5---------------------------------| 
G|-55555555-88888888-33333333-111111-44/5---------------------------------| 
C|-55555555-88888888-33333333-111111-44/5---------------------------------| 
 
                               1's 
verse 2: (Not really sure about this part) 
 
D|------------------------------------------------------------------------| 
A|------------------------------------------------------------------------| 
F|------------------------------------------------------------------------| 
C|------------------------------------------------------------------------| 
G|----5-5-6-55----4-4-5-2-----000--Find the strumming pattern-------------| 
C|-555-5-------444-4----------000-----------------------------------------| 
 
   xxx x       xxx x          xxx 
 
D|------------------------------------------------| 
A|------------------------------------------------| 
F|------------------------------------------------| 
C|------------------------------------------------| 
G|----5-5-6-55----4-4-5-2----1-1-3-5-3----0-0-1-3-| 
C|-555-5-------444-4------111-1--------000-0------| 
 
   xxx x       xxx x      xxx x      xxx x 

Pre-Chorus 2 

Chorus 2 (Part 1 same as Chorus 1) 

 
D|---------------------------------------------------------| 
A|---------------------------------------------------------| 
F|---------------------------------------------------------| 
C|----5~~------------33333333-111111-44--------------------| 
G|----5~~------------33333333-111111-44--------------------| 
C|----5~~------------33333333-111111-44--------------------| 
 
                               1's 
Chorus 1 

The Show Must Go On pt.2 

Interlude: No guitar 

Bridge: 
 
D|-------------------------------------------------------------------------| 
A|-------------------------------------------------------------------------| 
F|-------------------------------------------------------------------------| 
C|0-----000-5~~~-4~~~--5-5--5-5--5-5--5/4-4--4-4--4/1-1--1-1--1-1--0-0--0-0| 
G|0-000-000-5~~~-4~~~--5-5--5-5--5-5--5/4-4--4-4--4/1-1--1-1--1-1--0-0--0-0| 
C|0-000-000-5~~~-4~~~--5-5--5-5--5-5--5/4-4--4-4--4/1-1--1-1--1-1--0-0--0-0| 
 
    xxx 
Chorus 3: 
 
D|-------------------------------------------------------------------------| 
A|-------------------------------------------------------------------------| 
F|-------------------------------------------------------------------------| 
C|----55555555---8-8--8-8-----11111111-00000000----------------------------| 
G|----55555555---8-8--8-8-----11111111-00000000----------------------------| 
C|----55555555---8-8--8-8-----11111111-00000000----------------------------| 
 
                                 1's 
Then Chorus 1, but faster 

 
D|-------------| 
A|-------------| 
F|-------------| 
C|-----5-------| 
G|-----5-------| 
C|-----5-------| 
		  

See also:

tabs Scalene - Milhares Como Eu tabs Deep Purple - Never A Word tabs Deep Purple - Smoke On The Water (Intro + solo 01) tabs Ira! - Flerte Fatal (intro e solo) tabs Deep Purple - Deep Purple - Smoke On The Water tabs Deep Purple - Burn
e-chords

Other versions:

tabs Famous Last Words - The Show Must Go On Pt.1
auto scroll beats size up size down change color hide chords drawings
tab show chords e-chords YouTube Clip e-chords hide all tabs e-chords go to top tab

share