Eyehategod

home > Eyehategod

Quitters Offensive Tab

Eyehategod

Difficulty: nolevelnolevel

by jov%2Dcorrea

tuner correct add songbook print version text version save to e-mail
chordsukulelecavacokeyboardtabbassdrumsharmonicsflute Guitar Pro
chords

Quitters Offensive

	  Intro 

Riff A 
 C|----------------------| 
 G|----------------------| 
D#|----------------------| 
A#|----------------------| 
 F|--9-7---------p3-3----| 
 C|-------3-4-5-------2~-| 
                    
Riff B               
 C|-----------------------------------------------------------| 
 G|-----------------------------------------------------------| 
D#|-----------------------------------------------------------|  
A#|-----------------------------------------------------------| 
 F|---7-7-7-7-7-7-7-7---9-9-7----7-7~-------------------------| 
 C|--/5-5-5-5-5-5-5-5---------9------9-7----------------------| 
        * * * * * * *                                         |   
                                                              |  x3 
 C|---------------------------------------|-------------------| 
 G|---------------------------------------|-------------------| 
D#|---------------------------------------|-------------------|           
A#|---------------------------------------|-------------------| 
 F|---7-7-7-7-7-7-7-7---9-9-7----7-7------|-------------------| 
 C|--/5-5-5-5-5-5-5-5---------9------9-7--|--7-5-0-7-5-0-8-3--| 
        * * * * * * *                    
   
Riff A 
 C|----------------------| 
 G|----------------------| 
D#|----------------------| 
A#|----------------------| 
 F|--9-7---------p3-3----| 
 C|-------3-4-5-------2~-| 


Riff C 
 C|-----------------------------| 
 G|-----------------------------| 
D#|-----------------------------| 
A#|-----------------------------| 
 F|-5-5-5-5-5-5-5-5-6-5-p5------| 
 C|-3-3-3-3-3-3-3-3-4-3-p3------| 
      * * * * * * *   *         | 
                                |  x2 
 C|-----------------------------| 
 G|-----------------------------| 
D#|-----------------------------| 
A#|-----------------------------| 
 F|-5-5-5-5-5-5-5-5-6-5---3-----| 
 C|-3-3-3-3-3-3-3-3-4-3-3--p3---| 
      * * * * * * *   * 

Riff A 
 C|----------------------| 
 G|----------------------| 
D#|----------------------| 
A#|----------------------| 
 F|--9-7---------p3-3----| 
 C|-------3-4-5-------2~-| 
                    
Riff B               
 C|-----------------------------------------------------------| 
 G|-----------------------------------------------------------| 
D#|-----------------------------------------------------------|  
A#|-----------------------------------------------------------| 
 F|---7-7-7-7-7-7-7-7---9-9-7----7-7~-------------------------| 
 C|--/5-5-5-5-5-5-5-5---------9------9-7----------------------| 
        * * * * * * *                                         |   
                                                              |  x3 
 C|---------------------------------------|-------------------| 
 G|---------------------------------------|-------------------| 
D#|---------------------------------------|-------------------|           
A#|---------------------------------------|-------------------| 
 F|---7-7-7-7-7-7-7-7---9-9-7----7-7------|-------------------| 
 C|--/5-5-5-5-5-5-5-5---------9------9-7--|--7-5-0-7-5-0-8-3--| 
        * * * * * * *                    
   
Riff A 
 C|----------------------| 
 G|----------------------| 
D#|----------------------| 
A#|----------------------| 
 F|--9-7---------p3-3----| 
 C|-------3-4-5-------2~-| 


Riff C 
 C|-----------------------------| 
 G|-----------------------------| 
D#|-----------------------------| 
A#|-----------------------------| 
 F|-5-5-5-5-5-5-5-5-6-5-p5------| 
 C|-3-3-3-3-3-3-3-3-4-3-p3------| 
      * * * * * * *   *         | 
                                |  x2 
 C|-----------------------------| 
 G|-----------------------------| 
D#|-----------------------------| 
A#|-----------------------------| 
 F|-5-5-5-5-5-5-5-5-6-5---3-----| 
 C|-3-3-3-3-3-3-3-3-4-3-3--p3---| 


Riff A 
 C|----------------------| 
 G|----------------------| 
D#|----------------------| 
A#|----------------------| 
 F|--9-7---------p3-3----| 
 C|-------3-4-5-------2~-| 


Riff D 
 C|--------------------------| 
 G|--------------------------| 
D#|--------------------------| 
A#|--7-9-10-9-7-9------------| 
 F|--5-7-8--7-5-7---8-10-7---| 
 C|-----------------6-8--5---| 


Riff E 
 C|-------------------------|----------------------------------------------| 
 G|-------------------------|----------------------------------------------| 
D#|-------------------------|----------------------------------------------| 
A#|--7-9-10-9-7-9-----------|----------------------------------------------| 
 F|--5-7-8--7-5-7---9-p7-7~-|--5---------5--9-p7-7~-5-----------5--9-p7-7~-| 
 C|-------------------------|-----6-p8-5~--------------6-p8-5~-------------| 


Riff F 
 C|---------------------------------------------------|---------------------------|  
 G|---------------------------------------------------|---------------------------| 
D#|---------------------------------------------------|---------------------------| 
A#|--7-9-10-9-7-9-----7-9-10-9-7-9------7-9-10-9-7-9--|---------------------------| 
 F|--5-7-8--7-5-7-----5-7-8--7-5-7------5-7-8--7-5-7--|--p9-7~7---p7-5~5---p5-3~3-| 
 C|---------------------------------------------------|---------------------------| 


Riff G Outro 
 C|-------------------------| 
 G|-------------------------| 
D#|-------------------------| 
A#|-------------------------| 
 F|-5-5-5-5-5-5-5-5-6-5-p5--| 
 C|-3-3-3-3-3-3-3-3-4-3-p3--| 
      * * * * * * *   * 


************************************ 

| ~   Vibrato 
| *   Palm mute 
| /   Slide 
| p   Pull-off 

************************************ 
	  

there isn't a video lesson for this song

request
Search Paypal
auto scroll beats size up size down change color hide chords drawings
tab show chords e-chords YouTube Clip e-chords hide all tabs e-chords go to top tab