Exxótica

Eu Mesmo

Exxótica

tabs

by  ROOVERNIGHT

save to print version add songbook text version e-mail correct tuner
chordsukulelecavacokeyboardtabbassdrumsharmonicaflute Guitar Pro
close

there isn't a video lesson for this song

chords

Eu Mesmo

	  		Introdução: 
|----------------------------------------------------------------------------------|E 
|----------------------------------------------------------------------------------|A 
|----------------------------------------------------------------------------------|D 
|---4-5-7-11-----11-11--7-7--5-----------------------------------------------------|G 
|-2-4-5-7-11-----9--11--5-7--3-----------------------------------------------------|B 
|-0-2-3-5-9-----------9------5-----------------------------------------------------|E 

|----------------------------------------------------------------------------------|E 
|----------------------------------------------------------------------------------|A 
|----------------------------------------------------------------------------------|D 
|---4-5-7-11-----11-11--7-7--5-----------------------------------------------------|G 
|-2-4-5-7-11-----9--11--5-7--3-----------------------------------------------------|B 
|-0-2-3-5-9-----------9------5-----------------------------------------------------|E 

|----------------------------------------------------------------------------------|E 
|----------------------------------------------------------------------------------|A 
|----------------------------------------------------------------------------------|D 
|---4-5-7-11-5-7-8-9-9-7-7-4-------------------------------------------------------|G 
|-2-4-5-7-11-3-5-6-7-9-5-7-2----2--------------------------------------------------|B 
|-0-2-3-5-9----------7---5---------3-2---------------------------------------------|E 

|----------------------------------------------------------------------------------|E 
|----------------------------------------------------------------------------------|A 
|------------------------------0------0-----0--------------------------------------|D 
|---4-5-7-11-5-7-8-9-9-7-7----5-5----5-5---5-5-------------------------------------|G 
|-2-4-5-7-11-3-5-6-7-9-5-7---3------3-----3-----3----------------------------------|B 
|-0-2-3-5-9----------7---5------------------------3-2------------------------------|E 

Por Fora, por dentro... 

|----------------------------------------------------------------------------------|E 
|----------------------------------------------------------------------------------|A 
|--------2-2-2------------2-2-2----------------------------------------------------|D 
|-2-2-2--2-2-2-----2-2-2--2-2-2----------------------------------------------------|G 
|-2-2-2--0-0-0-----2-2-2--0-0-0----------------------------------------------------|B 
|-0-0-0------------0-0-0-----------------------------------------------------------|E 

|----------------------------------------------------------------------------------|E 
|----------------------------------------------------------------------------------|A 
|---------------------------4--4-4-------4-----------------------------------------|D 
|----5--5--5---5--5--5------4--4-4-------4-----------------------------------------|G 
|----5--5--5---5--5--5------2--2-2-------2-----------------------------------------|B 
|----3--3--3---3--3--3----------------0-2------------------------------------------|E 

|----------------------------------------------------------------------------------|E 
|----------------------------------------------------------------------------------|A 
|--------2-2-2------------2-2-2----------------------------------------------------|D 
|-2-2-2--2-2-2-----2-2-2--2-2-2----------------------------------------------------|G 
|-2-2-2--0-0-0-----2-2-2--0-0-0----------------------------------------------------|B 
|-0-0-0--------------0-0-0---------------------------------------------------------|E 

|----------------------------------------------------------------------------------|E 
|----------------------------------------------------------------------------------|A 
|---------------------------4--4-4-------4-----------------------------------------|D 
|----5--5--5---5--5--5------4--4-4-------4-----------------------------------------|G 
|----5--5--5---5--5--5------2--2-2-------2-----------------------------------------|B 
|----3--3--3---3--3--3----------------0-2------------------------------------------|E 

Pode ser que eu seja o meu problema... 

|----------------------------------------------------------------------------------|E 
|----------------------------------------------------------------------------------|A 
|-----5----7----2-------7----------------------------------------------------------|D 
|-----5----7----2---5---7--5-5-6-6-7-7---------------------------------------------|G 
|-----3----5----0---5---5--3-3-4-4-5-5---------------------------------------------|B 
|-------------------3--------------------------------------------------------------|E 

|----------------------------------------------------------------------------------|E 
|----------------------------------------------------------------------------------|A 
|-----5----7----2------------------------------------------------------------------|D 
|-----5----7----2---5----3--3--3--3------------------------------------------------|G 
|-----3----5----0---5----3--3--3--3------------------------------------------------|B 
|-------------------3----1--1--1--1------------------------------------------------|E 

Repete Introdução e desenrola o resto.. =) 
		  

See also:

tabs Vida Reluz - ACREDITAR NO AMOR tabs Ministérios - Sarando a terra ferida - Poder Da Fé (douglasg3) tabs Banda Dom - A volta tabs Adoração e Vida - Hoje Livre Sou tabs Padres - Pe. Zezinho - ORAÇÃO PELA FAMILIA tabs Católicas - Eu Navegarei(tablatura)
e-chords

Other versions:

tabs Exxótica - Eu Mesmo
auto scroll beats size up size down change color hide chords drawings
tab show chords e-chords YouTube Clip e-chords hide all tabs e-chords go to top tab

share