Exxótica

É Dificil

Exxótica

tabs

by  ROOVERNIGHT

save to print version add songbook text version e-mail correct tuner
chordsukulelecavacokeyboardtabbassdrumsharmonicaflute Guitar Pro
close

there isn't a video lesson for this song

chords

É Dificil

	  		D#---------0----------------------------| 
A#-----3---------3-------------3-------| 
F#-------2-------------------------------| 
C#---0-----------------------------------| 
G#----------------------2h3p2---------| 
D#---------------------------------------| 

D#---------0--------------------------3-2-0------| 
A#-----3---------3-------------3-------------3---| 
F#-------2-----------------------------------------| 
C#---0---------------------------------------------| 
G#----------------------2h3p2-------------------| 
D#-------------------------------------------------| 

o começo é mais ou menos isso ai 
		  

See also:

tabs Vida Reluz - ACREDITAR NO AMOR tabs Ministérios - Sarando a terra ferida - Poder Da Fé (douglasg3) tabs Banda Dom - A volta tabs Adoração e Vida - Hoje Livre Sou tabs Padres - Pe. Zezinho - ORAÇÃO PELA FAMILIA tabs Católicas - Eu Navegarei(tablatura)
e-chords

Other versions:

tabs Exxótica - É Dificil
auto scroll beats size up size down change color hide chords drawings
tab show chords e-chords YouTube Clip e-chords hide all tabs e-chords go to top tab

share