Exxótica

Os Fantasmas Que Habitam O Predio

Exxótica

tabs

by  LEO_NADIAROSSI

save to print version add songbook text version e-mail correct tuner
chordsukulelecavacokeyboardtabbassdrumsharmonicaflute Guitar Pro
close

there isn't a video lesson for this song

chords

Os Fantasmas Que Habitam O Predio

	  		Intro: 
|--------------------------------------------------------------------------------------------------| 
|--------------------------------------------------------------------------------------------------| 
|--------------------------------------------------------------------------------------------------| 
|9-9-9-9-9-7---9----9-9-9-9-9--7---4--14-14-14-14-14--11---12-12-12-12-12--9---10-10-10-10-10--5-7-| 
|7-7-7-7-7-5---7----7-7-7-7-7--5---2--12-12-12-12-12--9----10-10-10-10-10--7---8--8--8--8--8---7-9-| 
|--------------------------------------------------------------------------------------------------| 

Canto: 
|---------| 
|---------| 
|---------| 
|-9---7-9-| 
|-7---5-7-| 
|---------| 
\                          / 
|                         |     
Aconteceu há dois dias atrás 
|---------| 
|---------| 
|---------| 
|-9---7-4-| 
|-7---5-2-| 
|---------| 
\                    / 
|                   | 
Ainda era cedo demais 
|-------------------------------| 
|-------------------------------| 
|-14-11-12-9-10-7-9-------------| 
|-12-9--10-7-8--5-7-------------| 
|-------------------------------| 
\                               /  
|                              | 
Um dia qualquer pra se viver 
Ninguem poderia prever 
|---------| 
|---------| 
|---------| 
|-9---7-9-| 
|-7---5-7-| 
|---------| 
Foi entrando no saguão 
|---------| 
|---------| 
|---------| 
|-9---7-4-| 
|-7---5-2-| 
|---------| 
Ela viu em primeira mão 
|-------------------------------| 
|-------------------------------| 
|-14-11-12-9-10-7-9-------------| 
|-12-9--10-7-8--5-7-------------| 
|-------------------------------| 
Tudo o que vira a ocorrer 
Visão do horror...começou a se contorcer... 

|---------------------------------------------------------------------------| 
|---------------------------------------------------------------------------| 
|---------------------------------------------------------------------------| 
|-9-9--9-9----------7----4-5-4-----9-9--9-9----------7----4-5-4-------------| 
|-7-7--7-7-9~h.a----5--5-------5---7-7--7-7-9~h.a----5--5-------5-----------| 
|---------------------------------------------------------------------------| 

Em transe contou o seu drama 
Cheiro queimado de carne humana 
Seu desespero não tinha remedio 
E os Fantasmas que habitam o prédio 

Assustou-se com toda a visão 
Complexo demais para a razão 
Jamais poderiam lhe entender 
Maldito lugar para morrer 
Esboço de seres desesperados 
Gritando a poucos que podem ouvir 
Ainda vivem aquele dia...e sempre estarão por aqui... 

(Refrão) 
Rogou pra que a deixassem em paz 
Sussurrou frases estranhas demais 
Seu desespero não tinha remedio 
E os Fantasmas que habitam o prédio 

è isso ai pessoal a base da musica é td assim! 
solos eu naum consegui pegar ainda! 
mas se alguem se dispor^^! 
abraços! 
		  

See also:

tabs Walmir Alencar - O céu se abre tabs Ministérios - Ministerio apascentar - Faz chover tabs Ministérios - Ministério Adoração e Vida - Hoje Livre Sou tabs Católicas - Eu Navegarei(tablatura) tabs Rosa de Saron - Do Alto da Pedra (introdução) tabs Comunidades - Comunidade Nin-Jitsu - Quero te Levar
e-chords

Other versions:

tabs Exxótica - Os Fantasmas Que Habitam O Predio
auto scroll beats size up size down change color hide chords drawings
tab show chords e-chords YouTube Clip e-chords hide all tabs e-chords go to top tab

share