Exercise

How To Play Randy Rhoads

Exercise

tabs

by  TEUSALVES

save to print version add songbook text version e-mail correct tuner
chordsukulelecavacokeyboardtabbassdrumsharmonicaflute Guitar Pro
close

there isn't a video lesson for this song

chords

How To Play Randy Rhoads

	  		ex 1  

|---------10-------|  
|------10----13p10-|  
|12b14-------------|  
|------------------|  
|------------------|  
|------------------|  

ex2  

|13-10----10-----------------------------------------------------|  
|------13---13-10--13-10----10-----------------------------------|  
|------------------------12----12-10--12-10----10----------------|  
|-------------------------------------------12----12-10--12-10---|  
|----------------------------------------------------------------|  
|----------------------------------------------------------------|  

|---------------------------------|  
|---------------------------------|  
|---------------------------------|  
|-----10--------------------------|  
|-12-----12-10--12-10----10-------|  
|---------------------13----13-10-|  

|----------------------------------------------|  
|----------------------------------------------|  
|-----------------------------17---17-19-17-19-|  
|------------17---17-19-17-19----19------------|  
|17-20-17-20----20-----------------------------|  
|----------------------------------------------|  

|------------------17----17--20b22-|  
|18----18-20-18-20----20-----------|  
|---19-----------------------------|  
|----------------------------------|  
|----------------------------------|  
|----------------------------------|  

ex3  

|17-18-20p18p17h18p17/15h17p15/13h15p13/12h13p12/10h12p10/9-|  
|-----------------------------------------------------------|  
|-----------------------------------------------------------|  
|-----------------------------------------------------------|  
|-----------------------------------------------------------|  
|-----------------------------------------------------------|  

|----------------------------------------20b22r20-18-17-|  
|10h11p10-8h10p8/6h8p6/5h6p5/3h5p3/2h3p2----------------|  
|-------------------------------------------------------|  
|-------------------------------------------------------|  
|-------------------------------------------------------|  
|-------------------------------------------------------|  

ex 4  
                                       4X  
|-----------------------------------|-------------|-------------|  
|-----------------------------------|----10h11p10-|----10-13b15-|  
|------------------------10h12h14---|-12----------|-12----------|  
|----------------10h12h14-----------|-------------|-------------|  
|--------10h12h13-------------------|-------------|-------------|  
|10h12h13---------------------------|---------(4x)|-------------|  

ex5  

|------------------------------|  
|13p10----10-13p10-13p10----10-|  
|------12----------------12----|  
|------------------------------|  
|------------------------------|  
|------------------------------|  

|------------------------------|  
|15p13----13-15p13-15p13----13-|  
|------14----------------14----|  
|------------------------------|  
|------------------------------|  
|------------------------------|  

|13p10----10-13p10-13p10----10-|  
|------13----------------13----|  
|------------------------------|  
|------------------------------|  
|------------------------------|  
|------------------------------|  

|15p13----13-15p13-15p13----13-|  
|------15----------------15----|  
|------------------------------|  
|------------------------------|  
|------------------------------|  
|------------------------------|  

|17p13----13-17p13-17p13----13-|  
|------15----------------15----|  
|------------------------------|  
|------------------------------|  
|------------------------------|  
|------------------------------|  

|18p13----13-18p13-18p13----13-|  
|------15----------------15----|  
|------------------------------|  
|------------------------------|  
|------------------------------|  
|------------------------------|  

|15p12---12-15p12--15p12----12---------|  
|------13----------------13------13b15-|  
|--------------------------------------|  
|--------------------------------------|  
|--------------------------------------|  
|--------------------------------------|  

ex 6  

|17p13----13-17p13-17p13----13-|  
|------15----------------15----|  
|------------------------------|  
|------------------------------|  
|------------------------------|  
|------------------------------|  

|18p13----13-18p13-18p13----13-|  
|------15----------------15----|  
|------------------------------|  
|------------------------------|  
|------------------------------|  
|------------------------------|  

|15p12----12-15p12--15p12----12-|  
|------13-----------------13----|  
|-------------------------------|  
|-------------------------------|  
|-------------------------------|  
|-------------------------------|  

|17p12----12-17p12--17p12----12-|  
|------13-----------------13----|  
|-------------------------------|  
|-------------------------------|  
|-------------------------------|  
|-------------------------------|  

|13p10----10-13p10-13p10----10-|  
|------11----------------11----|  
|------------------------------|  
|------------------------------|  
|------------------------------|  
|------------------------------|  

|15p10----10-15p10-15p10----10-|  
|------11----------------11----|  
|------------------------------|  
|------------------------------|  
|------------------------------|  
|------------------------------|  

|9h10p9h10p9h10p9h10--------------------------|  
|---------------------10h11p10h11p10h11p10h11-|  
|---------------------------------------------|  
|---------------------------------------------|  
|---------------------------------------------|  
|---------------------------------------------|  

|--------------------------------------|  
|--------------------------------------|  
|9h10p9h10p9h10p9h10---6h7p6h7p6h7p6h7-|  
|--------------------------------------|  
|--------------------------------------|  
|--------------------------------------|  

|------------------------------------------------------------|  
|---------------------------------------------------------13-|  
|------------------------------------------------------12b14-|  
|7h8p7h8p7h8p7h8---------------------------------------------|  
|-----------------7h8p7h8p7h8p7h8---4h5p4h5p4h5p4h5p4--------|  
|------------------------------------------------------------|  

ex 7  

|----------------------------------------------------------------|  
|-----------------------------------------------------10b11------|  
|-----------------------------------------------------10b11------|  
|0h2h3p2-0h3h5p3-0h5h7p5-0h7h8p7-0h8h10p8-0h10h12p10---------12~-|  
|---------------------------------------------------12-----------|  
|----------------------------------------------------------------|  

ex 8  

|------10-13-10------------10-13-10------------10-13-10-------|  
|10-13----------13-10---13----------13-10---13----------13-10-|  
|-------------------------------------------------------------|  
|-------------------------------------------------------------|  
|-------------------------------------------------------------|  
|-------------------------------------------------------------|  

|------13-15-13------------13-15-13------------13-15-13-------|  
|13-15----------15-13---15----------15-13---15----------15-13-|  
|-------------------------------------------------------------|  
|-------------------------------------------------------------|  
|-------------------------------------------------------------|  
|-------------------------------------------------------------|  

|------13-17-13------------13-17-13------------13-17-13-------|  
|13-15----------15-13---15----------15-13---15----------15-13-|  
|-------------------------------------------------------------|  
|-------------------------------------------------------------|  
|-------------------------------------------------------------|  
|-------------------------------------------------------------|  

|------15-18-15------------15-18-15------------15-18-15-------|  
|15-18----------18-15---18----------18-15---18----------18-15-|  
|-------------------------------------------------------------|  
|-------------------------------------------------------------|  
|-------------------------------------------------------------|  
|-------------------------------------------------------------|  

|------15-20-15------------15-20-15------------15-20-15-------|  
|15-18----------18-15---15----------18-15---18----------18-15-|  
|-------------------------------------------------------------|  
|-------------------------------------------------------------|  
|-------------------------------------------------------------|  
|-------------------------------------------------------------|  
   
|----15-20-20b22-|  
|18--------------|  
|----------------|  
|----------------|  
|----------------|  
|----------------| 
		  

See also:

tabs Ira! - Vitrine Viva tabs Deep Purple - Black Knight tabs Deep Purple - Demonds Eye tabs Deep Purple - Smoke on the Water (ver. 2) tabs Deep Purple - Clearly Quite Absurd tabs Ira! - Envelheço na Cidade (intro)
e-chords

Other versions:

tabs Exercise - How To Play Randy Rhoads
auto scroll beats size up size down change color hide chords drawings
tab show chords e-chords YouTube Clip e-chords hide all tabs e-chords go to top tab

share