Exercise

How To Play Slash Style

Exercise

tabs

by  TEUSALVES

save to print version add songbook text version e-mail correct tuner
chordsukulelecavacokeyboardtabbassdrumsharmonicaflute Guitar Pro
close

there isn't a video lesson for this song

chords

How To Play Slash Style

	  		ex 1  

|------------------------------------------------------------|  
|------------------------------------------------------------|  
|--------------------------------------------5-5---5-7h8p7p5-|  
|----------------------------5-5---5-7-7-5-7-----7-----------|  
|----3-3---3-5-5-3-5-7-7-5-7-----7---------------------------|  
|3-5-----5---------------------------------------------------|  

|------------|  
|------5b6---|  
|--7---5b6---|  
|7---7-----7~|  
|------------|  
|------------|  

ex 2  

|7h8p7p5---5--5-----------------------------------------|  
|--------8--8---8-7h8p7p5---5---5-----------7---5b6-----|  
|-------------------------8---8---7h8p7p5---7---5b6-----|  
|-----------------------------------------7---7-----7-7~|  
|-------------------------------------------------------|  
|-------------------------------------------------------|  

ex 3  

|-----------------------------------------------|  
|--5h6p5---5h8p5----5h6p5---5h8p5---5h6p5-8b10~-|  
|7-------7--------7--------7-------7------------|  
|-----------------------------------------------|  
|-----------------------------------------------|  
|-----------------------------------------------|  

ex 4  

|12b14r12-11-10-8----10----8/9-----|  
|-----------------10----10-----10~-|  
|----------------------------------|  
|----------------------------------|  
|----------------------------------|  
|----------------------------------|  

ex5  

|----------------7h8p7h11-7p8p11/12/14-11p12p14/15-12h14h15p14p12|  
|----7h8p7--7p10-------------------------------------------------|  
|8h9------9------------------------------------------------------|  
|----------------------------------------------------------------|  
|----------------------------------------------------------------|  
|----------------------------------------------------------------|  

|--14p11/12h14p12-----------------------|  
|15----------------15-15b17r15-12-15b17-|  
|---------------------------------------|  
|---------------------------------------|  
|---------------------------------------|  
|---------------------------------------|  

ex 6  

|-------------------------------------------|  
|10----10---10---------10----10---10--------|  
|9b11--9b11-9b11r9-7~--9b11--9b11-9b11r9p7--|  
|-------------------------------------------|  
|-------------------------------------------|  
|-------------------------------------------|  

|-------9-12-12b14-----------------------|  
|----10------------10-12-12b14r12p10~----|  
|--11--------------------------------11~-|  
|----------------------------------------|  
|----------------------------------------|  
|----------------------------------------|  

|10-10--------------13p10-------------------14------------------|  
|10-10--------------12p10-------------17b19---17p14-17p14----14-|  
|------12p10h11------------12p10h11-----------------------16----|  
|---------------12----------------------------------------------|  
|---------------------------------------------------------------|  
|---------------------------------------------------------------|  

|-------------------------------------------------------|  
|16p14-16p14----14--------------------------------------|  
|------------16---16p14-16p14----14---------------------|  
|-----------------------------16---16p14-16p14-12b14r12-|  
|-------------------------------------------------------|  
|-------------------------------------------------------|  

ex 7   

|5-----7--5-----8---5-----8/10--8------10/12-10-------13/15-|  
|--8-5------8-5-------8-5---------10-8----------13-10-------|  
|-----------------------------------------------------------|  
|-----------------------------------------------------------|  
|-----------------------------------------------------------|  
|-----------------------------------------------------------|  

ex 8  

|------5-------------5------------5-------------5-----|  
|----5---7p5-------5---7p5------5---7p5-------5---7p5-|  
|7b9-----------7b9-----------7b9-----------7b9--------|  
|-----------------------------------------------------|  
|-----------------------------------------------------|  
|-----------------------------------------------------|  

|------8--------------------------------------|  
|--------8-------------8b10-8-7-6-5-6-7-8-8---|  
|--7b9-----9r7--5h7p5~--------------------7b9-|  
|---------------------------------------------|  
|---------------------------------------------|  
|---------------------------------------------|  


ex 9  

|---10-13-12-10-13-10-12-10--------------10-13-12-10-13-10-12-10-|  
|10-------------------------11-13-10~-10-------------------------|  
|----------------------------------------------------------------|  
|----------------------------------------------------------------|  
|----------------------------------------------------------------|  
|----------------------------------------------------------------|  

|---------6-10-10b12-------6-9-9b10------------------------------|  
|10-9-8--8-----------9/8-8----------10-11-10-13-10-11-10~-6------|  
|-----------------------------------------------------------6-7~-|  
|----------------------------------------------------------------|  
|----------------------------------------------------------------|  
|----------------------------------------------------------------| 
		  

See also:

tabs Deep Purple - Smoke On The Water tabs Ira! - Núcleo Base ( Acústico MTV) tabs Deep Purple - When a Blind man cries tabs Deep Purple - Time To Kill tabs Ira! - O Girassol (intro) tabs Deep Purple - Smoke On The Water (solo Ver.2)
e-chords

Other versions:

tabs Exercise - How To Play Slash Style
auto scroll beats size up size down change color hide chords drawings
tab show chords e-chords YouTube Clip e-chords hide all tabs e-chords go to top tab

share