Eterna

home > Eterna

Resgate Tab

Eterna

Difficulty: nolevelnolevel

tuner correct add songbook print version text version save to e-mail
chordsukulelecavacokeyboardtabbassdrumsharmonicsflute Guitar Pro
chords

Resgate

  		 
    - ETERNA 
    - RESGATE   
 
    / - slide 
    .. - palm mute 
    { } - harm. artificial 
    h - hammer on  
    p - pull off 
    b - bend 
    ~ - vibrato 
 
  Intro 
    4x 
  P.M P.M    
 |----------------------------|----------------------| 
 |---5---5--------------------|-7-x-7----------------| 
 |---4---4--4-4---------------|-6-x-6--2-------------| 
 |---2---2--4-4---------------|-4-x-4--2-------------| 
 |----------2-2-2h4-6p4-2h4-4-|--------0-0-4p2-0-2-2-| 
 |-0---0----------------------|----------------------| 
   
  P.M P.M 
 |----------------------------|----------------------| 
 |---5---5--------------------|-7-x-7----------------| 
 |---4---4--4-4---------------|-6-x-6--2---4/6-6\4-4-| 
 |---2---2--4-4---------------|-4-x-4--2---4/6-6\4-4-| 
 |----------2-2-2h4-6p4-2h4-4-|--------0-0-----------| 
 |-0---0----------------------|----------------------| 
  
    4a vez 
  P.M P.M   
 |----------------------------|----------------------| 
 |---5---5--------------------|-7-x-7----------------| 
 |---4---4--4-4---------------|-6-x-6--2-------------| 
 |---2---2--4-4---------------|-4-x-4--2-------------| 
 |----------2-2-2h4-6p4-2h4-4-|--------0-0-4p2-0-2-2-| 
 |-0---0----------------------|----------------------| 
 
  P.M P.M 
 |----------------------------|----------|-----------| 
 |---5---5--------------------|-7--------|-----------| 
 |---4---4--4-4---------------|-6--------|-4---------| 
 |---2---2--4-4---------------|-4--------|-4---------| 
 |----------2-2-2h4-6p4-2h4-4-|----------|-0---------| 
 |-0---0----------------------|----------|-----------| 
   
  4x 
  P..    .          ...   ... 
 |-----------------|----------------| 
 |-----------------|----5----5------| 
 |-----------6-----|----4----4-2----| 
 |-----4---4-6-4-4-|----2----2-2----| 
 |-----4---4-4-4-4-|-----------0----| 
 |-0-0-2-0-2---2-2-|-0-0--0-0-------| 
 
                    P.M.. 
 |--------------------------------|-------------------| 
 |-----------7--7-7---------------|-----------7--7-7--| 
 |------6--6-6--6-6---------------|------6--6-6--6-6--| 
 |-2--6-6--6-4--4-4---------------|-2--6-6--6-4--4-4--| 
 |-2--6-4--4--------0-0-0-4-2-0h2-|-2--6-4--4---------| 
 |-0--4---------------------------|-0--4--------------| 
 
  bendirei sempre .... nada falta  glorificai....  juntos o exaltemos  
 |----------------|---------------|---------------|-------------------| 
 |----------------|-7-------------|---------------|-7-7-7-7-7-7-7-7-7-| 
 |---------6-6-6--|-6-------------|---------6-6-6-|-6-6-6-6-6-6-6-6-6-| 
 |-2-----6-6-6-6--|-4---4/6-4-4/6-|-2-----6-6-6-6-|-4-4-4-4-4-4-4-4-4-| 
 |-2-----6-4-4-4--|---------------|-2-----6-4-4-4-|-------------------| 
 |-0-0-0-4--------|---------------|-0-0-0-4-------|-------------------| 
 
  os olhos do senhor......                                             
 |----0-----0--|----0-----0--|----0-----0--|----0--------| 
 |----0-----0--|----0-----0--|----0-----0--|----0--------| 
 |-6-----------|-------------|-6-----------|-------------| 
 |-6-----6-----|-7-----9-----|-6-----6-----|-7-----9-9-9-| 
 |-4-----6-----|-7-----9-----|-4-----6-----|-7-----9-9-9-| 
 |-------4-----|-5-----7-----|-------4-----|-5-----7-7-7-| 
 
  ..clamores 
  P.M..      ....     .... 
 |----------------------------| 
 |----------------------------| 
 |----------------------------| 
 |--9--9--9--9--9--9--9--9--9-| 
 |--9--9--9--9--9--9--9--9--9-| 
 |--7--7--7--7--7--7--7--7--7-| 
 
 
  P.M                 P.M  
 |---------------------|----------------------------------| 
 |---------------------|----------------------------------| 
 |---------------------|----------------13-11----13-11----| 
 |---------------------|----------------------12-------12-| 
 |----7-9---{5}~--7-5--|----7-9---{5}~--------------------| 
 |-0------7------------|-0------7-------------------------| 
  P.M                 P.M 
 |----------------------|--------------------| 
 |----------------------|--------------------| 
 |----------------------|--------------------| 
 |----------------------|--------------------| 
 |----7-9---{5}~---7-5--|----7-9-------------| 
 |-0------7-------------|-0------7-7---------| 
 
 
 
 |----------------------------------------|--------------------------| 
 |----------------------------------------|--------------------------| 
 |-13-11--{13}b-11--{13}b-11--{13}b-11----|-{13}-11--{13}b-11--14b---| 
 |------12--------12--------12--------12~-|--------12--------12------| 
 |----------------------------------------|--------------------------| 
 |----------------------------------------|--------------------------| 
 
 |----------------------------------------|--------------------------| 
 |----------------------------------------|--------------------------| 
 |-13-11--{13}b-11--{13}b-11--{13}b-11----|-{13}-11--{13}b-11--------| 
 |------12--------12--------12--------12~-|--------12--------12------| 
 |----------------------------------------|---------------------11~--| 
 |----------------------------------------|--------------------------| 
 
 |----------------------------------|---------------------| 
 |----------------------------------|---------------------| 
 |-13-11--13b-11--13b-11--13b-11----|-13-11--13b-11--14b--| 
 |------12------12------12------12~-|------12------12-----| 
 |----------------------------------|---------------------| 
 |----------------------------------|---------------------| 
 
                                                           SOLO 
 |----------------------------------|---------------------|------------------| 
 |----------------------------------|---------------------|-----17--------17-| 
 |-13-11--13b-11--13b-11--13b-11----|-13-11--13b-11--16b--|---16--16----16---| 
 |------12------12------12------12~-|------12------12-----|-18--------18-----| 
 |----------------------------------|---------------------|------------------| 
 |----------------------------------|---------------------|------------------| 
 
 |----------------------------------------------------------------| 
 |--19--19-17-15--------------------------------------------------| 
 |--------------18-16-14----------------------------------------14| 
 |----------------------18-16-14------------------------14-16-18--| 
 |------------------------------18-16-14--------14-16-18----------| 
 |--------------------------------------17-16-14------------------| 
 
 |------------|--------------------------------| 
 |------------|--------------------------------| 
 |-16br-14----|----14-16-16b-16b-16p14--14-----| 
 |---------16~|-16--------------------16--16~--| 
 |------------|--------------------------------| 
 |------------|--------------------------------| 
 
  |-19p1617p1617p1619p1617p1617p16-20p1719p1719p1720p1719p1719p17-| 
 |---------------------------------------------------------------| 
 |---------------------------------------------------------------| 
 |---------------------------------------------------------------| 
 |---------------------------------------------------------------| 
 |---------------------------------------------------------------| 
 
 |-19-17-16-19-17-16----------------------------------------------------| 
 |------------------18-16-14-18-16-14-----------------------------------| 
 |-----------------------------------18-16-14-18-16-14------------------| 
 |----------------------------------------------------18-16-14-18-16-14-| 
 |----------------------------------------------------------------------| 
 |----------------------------------------------------------------------| 
 
 |-----------------------------|--------------------------------------------------| 
 |-----------------------------|--------------------------------------------------| 
 |-----------------------------|--------------------------------------------------| 
 |-----------------------------|---------------------------------14---------------| 
 |-18-16-14-18-16-14-----------|---------14--------------14-16-18--18-16-14-16-18-| 
 |------------------17-16-14~~-|-14-16-17--17-16-14-16-17-------------------------| 
 
 |---------------------------------------------------------14-| 
 |---------------------------------15--------------15-17-19---| 
 |---------14--------------14-16-18--18-16-14-16-18-----------|    
 |-14-16-18--18-16-14-16-18-----------------------------------| 
 |------------------------------------------------------------| 
 |------------------------------------------------------------| 
 
                                         \alav/    \alav/ 
 |-16~--16-14--17-16-14--17-16-14--------|-0--------16-----22b-|  
 |-----------17--------17--------17-14~~-|---------------------| 
 |---------------------------------------|---------------------| 
 |---------------------------------------|---------------------| 
 |---------------------------------------|---------------------| 
 |---------------------------------------|-0-------------------| 
 
  Este solo nao esta 100% certo , mas e mais ou menos isso 

	  

Search Paypal
auto scroll beats size up size down change color hide chords drawings
tab show chords e-chords YouTube Clip e-chords hide all tabs e-chords go to top tab