Eterna

home > Eterna

Mother Land Tab

Eterna

Difficulty: nolevelnolevel

tuner correct add songbook print version text version save to e-mail
chordsukulelecavacokeyboardtabbassdrumsharmonicsflute Guitar Pro
chords

Mother Land

  		 
Frade Base 
                                                                             
|D#||-----------------------|-----------------------|-----------------------|| 
|A#||-----------------------|-----------------------|-----------------------|| 
|F#||--4/-5--x--4--4--------|--4/-5--x--4--4--------|--4/-5--x--4--4--------|| 
|C#||-----------4--4--------|-----------4--4--------|-----------4--4--------|| 
|G#||--2/-3--x--2--2--------|--2/-3--x--2--2--------|--2/-3--x--2--2--------|| 
|D#||-----------------------|-----------------------|-----------------------|| 
 
 
                                                                    
-----------------------|---------------------|--------------------| 
-----------------------|---------------------|--------------------| 
--4/-5--x--4--4--------|---------------------|--------------------| 
-----------4--4--------|--7--------9----8----|--9--------7--------| 
--2/-3--x--2--2--------|--5--------9----8----|--9--------5--------| 
-----------------------|--5------------------|-----------5--------| 
 
 
                                                                        
---------------------|------------------------|-----------------------| 
---------------------|------------------------|-----------------------| 
--9--------7----2----|------------------------|-----------------------| 
--9--------7----2----|---------------------2b-|-----------------------| 
---------------------|--2--3----2--2--3-------|--2--3----2--2----1----| 
---------------------|------------------------|-----------------------| 
 
 
                                                                      
--------------------|-----------------------|-----------------------| 
--------------------|-----------------------|-----------------------| 
--4--------4--------|-----------------------|-----------------------| 
--4--------4--------|-----------------------|-----------------------| 
--2--------2--------|--3----3--5-------2----|--3----2----0----3--2--| 
--------------------|-------------5---------|-----------------------| 
 
 
                                                        
-----------------------|------------------------------| 
-----------------------|------------------------------| 
-----------------------|------------------------------| 
-----------------------|------------------------------| 
----2--3--2----2--5----|------------------------------| 
-----------------------|------------------------------| 
 
 
                                                                            
----------------------------|-------------------------|--3----------------| 
----------------------------|------------7----7--8----|--3----------------| 
----------------------------|------------7----7--7----|--0----------------| 
--7h9-------7h9-------------|--7h9-------7----7--7----|--2----------------| 
--7---------7---------------|--7----------------------|--3----------------| 
------0--0------0--0--0--0--|------0--0---------------|-------------------| 
 
 
                                                                                 
------------------------|----------------------------|-------------------------| 
------------------------|----------------------------|------------7----7--8----| 
------------------------|----------------------------|------------7----7--7----| 
--4--------4--5----4----|--7h9-------7h9-------------|--7h9-------7----7--7----| 
--5----x-x-5-------5----|--7---------7---------------|--7----------------------| 
------------------------|------0--0------0--0--0--0--|------0--0---------------| 
 
 
                                                                           
--3----------------|------------------------|----------------------------| 
--3----------------|--7--------7--8----7----|----------------------------| 
--0----------------|--7--------7--7----7----|----------------------------| 
--2----------------|--7----x-x-7--7----7----|--7h9-------7h9-------------| 
--3----------------|------------------------|--7---------7---------------| 
-------------------|------------------------|------0--0------0--0--0--0--| 
 
 
                                                                        
-------------------------|--3----------------|------------------------| 
------------7----7--8----|--3----------------|------------------------| 
------------7----7--7----|--0----------------|------------------------| 
--7h9-------7----7--7----|--2----------------|--4--------4--5----4----| 
--7----------------------|--3----------------|--5----x-x-5-------5----| 
------0--0---------------|-------------------|------------------------| 
 
 
                                                                            
----------------------------|-------------------------|--3----------------| 
----------------------------|------------7----7--8----|--3----------------| 
----------------------------|------------7----7--7----|--0----------------| 
--7h9-------7h9-------------|--7h9-------7----7--7----|--2----------------| 
--7---------7---------------|--7----------------------|--3----------------| 
------0--0------0--0--0--0--|------0--0---------------|-------------------| 
 
 
                                                                             
------------------------|--------------------------|-----------------------| 
--7--------7--8----7----|--------6--------------7--|----7--7h8---7---------| 
--7--------7--7----7----|--5--x--5-----7h-5--x--7--|----7--7h7---7------4--| 
--7----x-x-7--7----7----|--5--x--5--x--5--5--x--7--|----7--7h9---7------4--| 
------------------------|--------------------------|--------------------2--| 
------------------------|--------------------------|-----------------------| 
 
 
                                                                       
---------------------|--------------------|--------------------------| 
---------------------|--------------------|--------6--------------7--| 
--4------------x--5--|------x--7----------|--5--x--5-----7h-5--x--7--| 
--4------------x--5--|------x--7----------|--5--x--5--x--5--5--x--7--| 
--2------------x--3--|------x--5----------|--------------------------| 
---------------------|--------------------|--------------------------| 
 
 
                                                                               
-------------10--------|--------------------------|--------------------------| 
----7--7h8---8---------|--7--------7--------7-----|--8--------8--------8-----| 
----7--7-----7---------|--7--x--x--7--x--x--7--x--|--7--x--x--7--x--x--7--x--| 
----7--7-----7---------|--7--x--x--7--x--x--7--x--|--7--x--x--7--x--x--7--x--| 
-----------------------|--------------------------|--------------------------| 
-----------------------|--------------------------|--------------------------| 
 
 
                                                                
--10--10--10--10--10--10--10--10/-|---------------------------| 
--10--10--10--10--10--10--10--10/-|---------------------------| 
----------------------------------|--9----9--x-x-7h9h-7-------| 
----------------------------------|--9----9--x-x-7h9h-7----9--| 
----------------------------------|------------------------9--| 
----------------------------------|---------------------------| 
 
 
                                                                   
------------------------|--------------------|-------------------| 
------------------------|--------------------|-------------------| 
-------9-----7/-9----7--|--7-----------------|--------5----------| 
---------------------7--|--7--------------7--|--------5----------| 
----7-----x--5/-7----5--|--5--------------7--|-------------------| 
------------------------|--------------------|-------------------| 
 
 
                                                                          
---------------------------|------------------------|-------------------| 
---------------------------|------------------------|-------------------| 
--9----9--x-x-7h9h-7-------|-------9-----7/-9----7--|--7----------------| 
--9----9--x-x-7h9h-7----9--|---------------------7--|--7----------------| 
------------------------9--|----7-----x--5/-7----5--|--5----------------| 
---------------------------|------------------------|-------------------| 
 
 
                                                            
------------------------------|---------------------------| 
------------------------------|---------------------------| 
----14--14--14--14/16---14----|--9----9--x-x-7h9h-7-------| 
------------------------------|--9----9--x-x-7h9h-7----9--| 
----12--12--12--12/14---12----|------------------------9--| 
------------------------------|---------------------------| 
 
 
                                                                   
------------------------|--------------------|-------------------| 
------------------------|--------------------|-------------------| 
-------9-----7/-9----7--|--7-----------------|--------5----------| 
---------------------7--|--7--------------7--|--------5----------| 
----7-----x--5/-7----5--|--5--------------7--|-------------------| 
------------------------|--------------------|-------------------| 
 
 
                                                                          
---------------------------|------------------------|-------------------| 
---------------------------|------------------------|-------------------| 
--9----9--x-x-7h9h-7-------|-------9-----7/-9----7--|--7----------------| 
--9----9--x-x-7h9h-7----9--|---------------------7--|--7----------------| 
------------------------9--|----7-----x--5/-7----5--|--5----------------| 
---------------------------|------------------------|-------------------| 
 
 
                                                                                
------------------------------|-----------------------|-----------------------| 
------------------------------|-----------------------|-----------------------| 
----14--14--14--14/16---14----|--4/-5--x--4--4--------|--4/-5--x--4--4--------| 
------------------------------|-----------4--4--------|-----------4--4--------| 
----12--12--12--12/14---12----|--2/-3--x--2--2--------|--2/-3--x--2--2--------| 
------------------------------|-----------------------|-----------------------| 
 
 
                                                                         
-----------------------|-----------------------|-----------------------| 
-----------------------|-----------------------|-----------------------| 
--4/-5--x--4--4--------|--4/-5--x--4--4--------|--2--------------------| 
-----------4--4--------|-----------4--4--------|-----3----2----0----1--| 
--2/-3--x--2--2--------|--2/-3--x--2--2--------|-----------------------| 
-----------------------|-----------------------|-----------------------| 
 
 
                                                                              
---------------------------|-------------------|----------------------------| 
---------------------------|-------------------|----------------------------| 
---------4-----4--4b-4--4b-|--4~---------------|----------------------------| 
--2--2/4----4--------------|-------------------|--7h9-------7h9-------------| 
---------------------------|-------------------|--7---------7---------------| 
---------------------------|-------------------|------0--0------0--0--0--0--| 
 
 
                                                                        
-------------------------|--3----------------|------------------------| 
------------7----7--8----|--3----------------|------------------------| 
------------7----7--7----|--0----------------|------------------------| 
--7h9-------7----7--7----|--2----------------|--4--------4--5----4----| 
--7----------------------|--3----------------|--5----x-x-5-------5----| 
------0--0---------------|-------------------|------------------------| 
 
 
                                                                            
----------------------------|-------------------------|--3----------------| 
----------------------------|------------7----7--8----|--3----------------| 
----------------------------|------------7----7--7----|--0----------------| 
--7h9-------7h9-------------|--7h9-------7----7--7----|--2----------------| 
--7---------7---------------|--7----------------------|--3----------------| 
------0--0------0--0--0--0--|------0--0---------------|-------------------| 
 
 
                                                                                 
------------------------|----------------------------|-------------------------| 
--7--------7--8----7----|----------------------------|------------7----7--8----| 
--7--------7--7----7----|----------------------------|------------7----7--7----| 
--7----x-x-7--7----7----|--7h9-------7h9-------------|--7h9-------7----7--7----| 
------------------------|--7---------7---------------|--7----------------------| 
------------------------|------0--0------0--0--0--0--|------0--0---------------| 
 
 
                                                                           
--3----------------|------------------------|----------------------------| 
--3----------------|------------------------|----------------------------| 
--0----------------|------------------------|----------------------------| 
--2----------------|--4--------4--5----4----|--7h9-------7h9-------------| 
--3----------------|--5----x-x-5-------5----|--7---------7---------------| 
-------------------|------------------------|------0--0------0--0--0--0--| 
 
 
                                                                        
-------------------------|--3----------------|------------------------| 
------------7----7--8----|--3----------------|--7--------7--8----7----| 
------------7----7--7----|--0----------------|--7--------7--7----7----| 
--7h9-------7----7--7----|--2----------------|--7----x-x-7--7----7----| 
--7----------------------|--3----------------|------------------------| 
------0--0---------------|-------------------|------------------------| 
 
 
                                                                          
--------------------------|-----------------------|---------------------| 
--------6--------------7--|----7--7h8---7---------|---------------------| 
--5--x--5-----7h-5--x--7--|----7--7h7---7------4--|--4------------x--5--| 
--5--x--5--x--5--5--x--7--|----7--7h9---7------4--|--4------------x--5--| 
--------------------------|--------------------2--|--2------------x--3--| 
--------------------------|-----------------------|---------------------| 
 
 
                                                                         
--------------------|--------------------------|-------------10--------| 
--------------------|--------6--------------7--|----7--7h8---8---------| 
------x--7----------|--5--x--5-----7h-5--x--7--|----7--7-----7---------| 
------x--7----------|--5--x--5--x--5--5--x--7--|----7--7-----7---------| 
------x--5----------|--------------------------|-----------------------| 
--------------------|--------------------------|-----------------------| 
 
 
                                                       
--------------------------|--------------------------| 
--7--------7--------7-----|--8--------8--------8-----| 
--7--x--x--7--x--x--7--x--|--7--x--x--7--x--x--7--x--| 
--7--x--x--7--x--x--7--x--|--7--x--x--7--x--x--7--x--| 
--------------------------|--------------------------| 
--------------------------|--------------------------| 
 
 
                                                                
--10--10--10--10--10--10--10--10/-|---------------------------| 
--10--10--10--10--10--10--10--10/-|---------------------------| 
----------------------------------|--9----9--x-x-7h9h-7-------| 
----------------------------------|--9----9--x-x-7h9h-7----9--| 
----------------------------------|------------------------9--| 
----------------------------------|---------------------------| 
 
 
                                                                   
------------------------|--------------------|-------------------| 
------------------------|--------------------|-------------------| 
-------9-----7/-9----7--|--7-----------------|--------5----------| 
---------------------7--|--7--------------7--|--------5----------| 
----7-----x--5/-7----5--|--5--------------7--|-------------------| 
------------------------|--------------------|-------------------| 
 
 
                                                                          
---------------------------|------------------------|-------------------| 
---------------------------|------------------------|-------------------| 
--9----9--x-x-7h9h-7-------|-------9-----7/-9----7--|--7----------------| 
--9----9--x-x-7h9h-7----9--|---------------------7--|--7----------------| 
------------------------9--|----7-----x--5/-7----5--|--5----------------| 
---------------------------|------------------------|-------------------| 
 
 
                                                            
------------------------------|---------------------------| 
------------------------------|---------------------------| 
----14--14--14--14/16---14----|--9----9--x-x-7h9h-7-------| 
------------------------------|--9----9--x-x-7h9h-7----9--| 
----12--12--12--12/14---12----|------------------------9--| 
------------------------------|---------------------------| 
 
 
                                                                   
------------------------|--------------------|-------------------| 
------------------------|--------------------|-------------------| 
-------9-----7/-9----7--|--7-----------------|--------5----------| 
---------------------7--|--7--------------7--|--------5----------| 
----7-----x--5/-7----5--|--5--------------7--|-------------------| 
------------------------|--------------------|-------------------| 
 
 
                                                                          
---------------------------|------------------------|-------------------| 
---------------------------|------------------------|-------------------| 
--9----9--x-x-7h9h-7-------|-------9-----7/-9----7--|--7----------------| 
--9----9--x-x-7h9h-7----9--|---------------------7--|--7----------------| 
------------------------9--|----7-----x--5/-7----5--|--5----------------| 
---------------------------|------------------------|-------------------| 
 
 
                                                                                
------------------------------|-----------------------|-----------------------| 
------------------------------|-----------------------|-----------------------| 
----14--14--14--14/16---14----|--4/-5--x--4--4--------|--4/-5--x--4--4--------| 
------------------------------|-----------4--4--------|-----------4--4--------| 
----12--12--12--12/14---12----|--2/-3--x--2--2--------|--2/-3--x--2--2--------| 
------------------------------|-----------------------|-----------------------| 
 
 
                                                                      
-----------------------|-----------------------|--------------------| 
-----------------------|-----------------------|--------------------| 
--4/-5--x--4--4--------|--4/-5--x--4--4--------|--5--------7--------| 
-----------4--4--------|-----------4--4--------|--5--------7--------| 
--2/-3--x--2--2--------|--2/-3--x--2--2--------|--3--------5--------| 
-----------------------|-----------------------|--------------------| 
 
 
                                                                         
-----------------------|-----------------------|-----------------------| 
-----------------------|-----------------------|-----------------------| 
--4/-5--x--4--4--------|--4/-5--x--4--4--------|--4/-5--x--4--4--------| 
-----------4--4--------|-----------4--4--------|-----------4--4--------| 
--2/-3--x--2--2--------|--2/-3--x--2--2--------|--2/-3--x--2--2--------| 
-----------------------|-----------------------|-----------------------| 
 
 
                                              
-----------------------|--------------------| 
-----------------------|--------------------| 
--4/-5--x--4--4--------|--5-----------------| 
-----------4--4--------|--5--------5--------| 
--2/-3--x--2--2--------|--3--------5--------| 
-----------------------|-----------3--------| 
 
 
                                              
--------------------------------------------| 
--------------------------------------------| 
-----------5h-4-----------------5h-4--------| 
--------7--------5-----------7--------5-----| 
-----7--------------7-----7--------------7--| 
--5--------------------5--------------------| 
 
 
                                              
--------------------------------------------| 
--------------------------------------------| 
-----------5h-4-----------------5h-4--------| 
--------7--------5-----------7--------5-----| 
-----7--------------7-----7--------------7--| 
--5--------------------5--------------------| 
 
 
                                              
--------------------------------------------| 
--------------------------------------------| 
-----------4h-3-----------------4h-3--------| 
--------6--------4-----------6--------4-----| 
-----6--------------6-----6--------------6--| 
--4--------------------4--------------------| 
 
 
                                                                  
--------------------------------------------|-------------------| 
--------------------------------------------|-------------------| 
-----------4h-3-----------------4h-3--------|-------------------| 
--------6--------4-----------6--------4-----|--2----------------| 
-----6--------------6-----6--------------6--|--0----------------| 
--4--------------------4--------------------|-------------------| 
 
 
                                                                                 
-------------------|-------------------|-------------------|-------------------| 
-------------------|-------------------|-------------------|-------------------| 
--4----------------|--5----------------|--7----------------|--9----------------| 
--4----------------|--5----------------|--7----------------|--9----------------| 
--2----------------|--3----------------|--5----------------|--7----------------| 
-------------------|-------------------|-------------------|-------------------| 
 
 
                                                                      
------------------|-------------------------|-----------------------| 
------------------|-------------------------|-----------------------| 
------------------|--9--9--9/-7--9----9--9--|--9/-7--9--------9--9--| 
------------------|--9--9--9/-7--9----9--9--|--9/-7--9--------9--9--| 
------------------|--7--7--7/-5--7----7--7--|--7/-5--7--------7--7--| 
------------------|-------------------------|-----------------------| 
 
 
                                                                           
------------------------|----------------------|-------------------------| 
------------------------|--10------------------|-------------------------| 
--9/-7--9------9/-7/-9--|--9-------------9--9--|--9/-7--9----9--9--9/-7--| 
--9/-7--9------9/-7/-9--|--7-------------9--9--|--9/-7--9----9--9--9/-7--| 
--7/-5--7------7/-5/-7--|----------------7--7--|--7/-5--7----7--7--7/-5--| 
------------------------|----------------------|-------------------------| 
 
 
                                                        
-----------------------|------------------------------| 
-----------------------|------------------------------| 
--9--------9--9--9/-7--|------------------------------| 
--9--------9--9--9/-7--|--7------5h4------------------| 
--7--------7--7--7/-5--|-------------7~---------------| 
-----------------------|------------------------------| 
 
 
                                                                            
-------------------------|-----------------------|------------------------| 
-------------------------|-----------------------|------------------------| 
-------------------------|-----------------------|------------------------| 
-------------------------|-----------------------|------------------------| 
--7--7--7/-5--7----7--7--|--7/-5--7--------7--7--|--7/-5--7------7/-5/-7--| 
--5--5--5/-3--5----5--5--|--5/-3--5--------5--5--|--5/-3--5------5/-3/-5--| 
 
 
                                                                         
---------------------|-------------------------|-----------------------| 
---------------------|-------------------------|-----------------------| 
--7------------------|-------------------------|-----------------------| 
--7------------------|-------------------------|-----------------------| 
--5------------7--7--|--7/-5--7----7--7--7/-5--|--7--------7--7--7/-5--| 
---------------5--5--|--5/-3--5----5--5--5--3--|--5--------5--5--5/-3--| 
 
 
                                                           
------------------------------|--------------------------| 
------------------------------|--------6--------------7--| 
------------------------------|--5--x--5-----7h-5--x--7--| 
------------------------------|--5--x--5--x--5--5--x--7--| 
--5------3h2------------------|--------------------------| 
-------------5~---------------|--------------------------| 
 
 
                                                                    
-----------------------|---------------------|--------------------| 
----7--7h8---7---------|---------------------|--------------------| 
----7--7h7---7------4--|--4------------x--5--|------x--7----------| 
----7--7h9---7------4--|--4------------x--5--|------x--7----------| 
--------------------2--|--2------------x--3--|------x--5----------| 
-----------------------|---------------------|--------------------| 
 
 
                                                                               
--------------------------|-------------10--------|--------------------------| 
--------6--------------7--|----7--7h8---8---------|--7--------7--------7-----| 
--5--x--5-----7h-5--x--7--|----7--7-----7---------|--7--x--x--7--x--x--7--x--| 
--5--x--5--x--5--5--x--7--|----7--7-----7---------|--7--x--x--7--x--x--7--x--| 
--------------------------|-----------------------|--------------------------| 
--------------------------|-----------------------|--------------------------| 
 
 
                                                               
--------------------------|--10--10--10--10--10--10--10--10/-| 
--8--------8--------8-----|--10--10--10--10--10--10--10--10/-| 
--7--x--x--7--x--x--7--x--|----------------------------------| 
--7--x--x--7--x--x--7--x--|----------------------------------| 
--------------------------|----------------------------------| 
--------------------------|----------------------------------| 
 
 
                                                                           
---------------------------|------------------------|--------------------| 
---------------------------|------------------------|--------------------| 
--9----9--x-x-7h9h-7-------|-------9-----7/-9----7--|--7-----------------| 
--9----9--x-x-7h9h-7----9--|---------------------7--|--7--------------7--| 
------------------------9--|----7-----x--5/-7----5--|--5--------------7--| 
---------------------------|------------------------|--------------------| 
 
 
                                                                          
-------------------|---------------------------|------------------------| 
-------------------|---------------------------|------------------------| 
--------5----------|--9----9--x-x-7h9h-7-------|-------9-----7/-9----7--| 
--------5----------|--9----9--x-x-7h9h-7----9--|---------------------7--| 
-------------------|------------------------9--|----7-----x--5/-7----5--| 
-------------------|---------------------------|------------------------| 
 
 
                                                                                
-------------------|------------------------------|---------------------------| 
-------------------|------------------------------|---------------------------| 
--7----------------|----14--14--14--14/16---14----|--9----9--x-x-7h9h-7-------| 
--7----------------|------------------------------|--9----9--x-x-7h9h-7----9--| 
--5----------------|----12--12--12--12/14---12----|------------------------9--| 
-------------------|------------------------------|---------------------------| 
 
 
                                                                   
------------------------|--------------------|-------------------| 
------------------------|--------------------|-------------------| 
-------9-----7/-9----7--|--7-----------------|--------5----------| 
---------------------7--|--7--------------7--|--------5----------| 
----7-----x--5/-7----5--|--5--------------7--|-------------------| 
------------------------|--------------------|-------------------| 
 
 
                                                                          
---------------------------|------------------------|-------------------| 
---------------------------|------------------------|-------------------| 
--9----9--x-x-7h9h-7-------|-------9-----7/-9----7--|--7----------------| 
--9----9--x-x-7h9h-7----9--|---------------------7--|--7----------------| 
------------------------9--|----7-----x--5/-7----5--|--5----------------| 
---------------------------|------------------------|-------------------| 
 
 
                                                                    
------------------|-----------------------|-----------------------| 
------------------|-----------------------|-----------------------| 
------------------|--4/-5--x--4--4--------|--4/-5--x--4--4--------| 
------------------|-----------4--4--------|-----------4--4--------| 
------------------|--2/-3--x--2--2--------|--2/-3--x--2--2--------| 
------------------|-----------------------|-----------------------| 
 
 
                                                                       
-----------------------|-----------------------|---------------------| 
-----------------------|-----------------------|---------------------| 
--4/-5--x--4--4--------|--4/-5--x--4--4--------|---------------------| 
-----------4--4--------|-----------4--4--------|--7--------9----8----| 
--2/-3--x--2--2--------|--2/-3--x--2--2--------|--5--------9----8----| 
-----------------------|-----------------------|--5------------------| 
 
 
                                                                     
--------------------|---------------------|------------------------| 
--------------------|---------------------|------------------------| 
--------------------|--9--------7----2----|------------------------| 
--9--------7--------|--9--------7----2----|---------------------2b-| 
--9--------5--------|---------------------|--2--3----2--2--3-------| 
-----------5--------|---------------------|------------------------| 
 
 
                                                                      
-----------------------|--------------------|-----------------------| 
-----------------------|--------------------|-----------------------| 
-----------------------|--4--------4--------|-----------------------| 
-----------------------|--4--------4--------|-----------------------| 
--2--3----2--2----1----|--2--------2--------|--3----3--5-------2----| 
-----------------------|--------------------|-------------5---------| 
 
 
                                                                                
-----------------------|-----------------------|------------------------------| 
-----------------------|-----------------------|------------------------------| 
-----------------------|-----------------------|------------------------------| 
-----------------------|-----------------------|------------------------------| 
--3----2----0----3--2--|----2--3--2----2--5----|------------------------------| 
-----------------------|-----------------------|------------------------------| 
 
 
             
----------|| 
----------|| 
----------|| 
----------|| 
----------|| 
----------|| 
 
 
 Mother Land                                    
 
 
Frade Solos 
                                                                           
|D#||------|------|------|------|------|------|------|------|------|------|| 
|A#||------|------|------|------|------|------|------|------|------|------|| 
|F#||------|------|------|------|------|------|------|------|------|------|| 
|C#||------|------|------|------|------|------|------|------|------|------|| 
|G#||------|------|------|------|------|------|------|------|------|------|| 
|D#||------|------|------|------|------|------|------|------|------|------|| 
 
 
                                                                                
------|------|-------------------|------------------------------|------|------| 
------|------|-------------------|------------------------------|------|------| 
------|------|-------------------|------------------------------|------|------| 
------|------|-------------------|------------------------------|------|------| 
------|------|--------------1----|------------------------------|------|------| 
------|------|-------------------|------------------------------|------|------| 
 
 
                                                                              
------|------|------|------|------|------|------|------|------|------|------| 
------|------|------|------|------|------|------|------|------|------|------| 
------|------|------|------|------|------|------|------|------|------|------| 
------|------|------|------|------|------|------|------|------|------|------| 
------|------|------|------|------|------|------|------|------|------|------| 
------|------|------|------|------|------|------|------|------|------|------| 
 
 
                                                                              
------|------|------|------|------|------|------|------|------|------|------| 
------|------|------|------|------|------|------|------|------|------|------| 
------|------|------|------|------|------|------|------|------|------|------| 
------|------|------|------|------|------|------|------|------|------|------| 
------|------|------|------|------|------|------|------|------|------|------| 
------|------|------|------|------|------|------|------|------|------|------| 
 
 
                                                                              
------|------|------|------|------|------|------|------|------|------|------| 
------|------|------|------|------|------|------|------|------|------|------| 
------|------|------|------|------|------|------|------|------|------|------| 
------|------|------|------|------|------|------|------|------|------|------| 
------|------|------|------|------|------|------|------|------|------|------| 
------|------|------|------|------|------|------|------|------|------|------| 
 
 
                                           
------|------|------|------|------|------| 
------|------|------|------|------|------| 
------|------|------|------|------|------| 
------|------|------|------|------|------| 
------|------|------|------|------|------| 
------|------|------|------|------|------| 
 
 
                                                      
------7h8h10-12t12h10h8h7---------------------------| 
----x---------------------12t12h10h8h7--------------| 
--x------------------------------------9-11h9h7/5---| 
--------------------------------------------------7-| 
----------------------------------------------------| 
----------------------------------------------------| 
 
 
                                                           
----------------------------|----------------------------| 
----------------------------|--15b-17--17--17--17--------| 
----------------------------|----------------------------| 
--9h7-5---------------------|----------------------------| 
--------7h5/3---------------|----------------------------| 
--------------5----0--------|----------------------------| 
 
 
                                                                               
--12--15--17--x-17-15-12-----------|------|------|------|------|------|------| 
-------------------------15~-------|------|------|------|------|------|------| 
-----------------------------------|------|------|------|------|------|------| 
-----------------------------------|------|------|------|------|------|------| 
-----------------------------------|------|------|------|------|------|------| 
-----------------------------------|------|------|------|------|------|------| 
 
 
                                                                              
------|------|------|------|------|------|------|------|------|------|------| 
------|------|------|------|------|------|------|------|------|------|------| 
------|------|------|------|------|------|------|------|------|------|------| 
------|------|------|------|------|------|------|------|------|------|------| 
------|------|------|------|------|------|------|------|------|------|------| 
------|------|------|------|------|------|------|------|------|------|------| 
 
 
                                                                              
------|------|------|------|------|------|------|------|------|------|------| 
------|------|------|------|------|------|------|------|------|------|------| 
------|------|------|------|------|------|------|------|------|------|------| 
------|------|------|------|------|------|------|------|------|------|------| 
------|------|------|------|------|------|------|------|------|------|------| 
------|------|------|------|------|------|------|------|------|------|------| 
 
 
                                                                              
------|------|------|------|------|------|------|------|------|------|------| 
------|------|------|------|------|------|------|------|------|------|------| 
------|------|------|------|------|------|------|------|------|------|------| 
------|------|------|------|------|------|------|------|------|------|------| 
------|------|------|------|------|------|------|------|------|------|------| 
------|------|------|------|------|------|------|------|------|------|------| 
 
 
                                                           
------|------|------|------|------|----------------------| 
------|------|------|------|------|----------------------| 
------|------|------|------|------|--4--5----4--4~-------| 
------|------|------|------|------|--x-------------------| 
------|------|------|------|------|--x-------------------| 
------|------|------|------|------|----------------------| 
 
 
                                                                       
----------------------|-----------------------------------7-8-10h8h7-| 
----------------------|----------------------------7-8-10------------| 
--4--5----4--4~-------|--------5-7-9h7h5h7h5-5-7-9-------------------| 
--x-------------------|--5-7-9---------------------------------------| 
--x-------------------|----------------------------------------------| 
----------------------|----------------------------------------------| 
 
 
                                                                        
--8h7-7-8-10h8h7---------10----|--------3--7h-3-----------5--8h-7h-5--| 
-------------------10b---------|-----5-----------5-----6--------------| 
-------------------------------|--5-----------------7-----------------| 
-------------------------------|--------------------------------------| 
-------------------------------|--------------------------------------| 
-------------------------------|--------------------------------------| 
 
 
                                                                          
--7----8--7----5----3--|--5----7--5----3-------|------------------------| 
-----------------------|--------------------3--|--5----6--5----3--1/-3--| 
-----------------------|-----------------------|------------------------| 
-----------------------|-----------------------|------------------------| 
-----------------------|-----------------------|------------------------| 
-----------------------|-----------------------|------------------------| 
 
 
                     
--0----------------| 
-------------------| 
-------------------| 
-------------------| 
-------------------| 
-------------------| 
 
 
                                                                   
----------17--20h-17---------------10h12h15-17t17t15h12h10h12h15-| 
------18--------------18--------12-------------------------------| 
--17-------------------------12----------------------------------| 
--------------------------12-------------------------------------| 
-----------------------------------------------------------------| 
-----------------------------------------------------------------| 
 
 
                                                                                
--17t17t15h12h10---------------------------|------|------|------|------|------| 
-----------------15~-----------------------|------|------|------|------|------| 
-------------------------------------------|------|------|------|------|------| 
-------------------------------------------|------|------|------|------|------| 
-------------------------------------------|------|------|------|------|------| 
-------------------------------------------|------|------|------|------|------| 
 
 
                                                            
------|------|------|------|--------7--8--7-8-7-8-7-------| 
------|------|------|------|-----8---------------------8--| 
------|------|------|------|--9---------------------9-----| 
------|------|------|------|------------------------------| 
------|------|------|------|------------------------------| 
------|------|------|------|------------------------------| 
 
 
                                                                              
--7--8--7-8-7-8-7-----------|--7--8--7------8--7--8--|----------------------| 
-------------------------8--|------------------------|--10---------------8--| 
----------------------9-----|------------------------|----------------9-----| 
----------------------------|------------------------|----------------------| 
----------------------------|------------------------|----------------------| 
----------------------------|------------------------|----------------------| 
 
 
                                                             
--7--8--7-8-7-8-7-------7--8--|--7-8-7-8-7-----------7--8--| 
---------------------8--------|-------------------8--------| 
------------------9-----------|----------------9-----------| 
------------------------------|----------------------------| 
------------------------------|----------------------------| 
------------------------------|----------------------------| 
 
 
                                                                            
--10------8-7-------------------|----------12--13--12-13-12-13-12---------| 
--------------10----------------|------13-----------------------------13--| 
--------------------------------|--14-----------------------------14------| 
--------------------------------|-----------------------------------------| 
--------------------------------|-----------------------------------------| 
--------------------------------|-----------------------------------------| 
 
 
                                                                      
--12--13--12-13-12-13-12-------------|--12--13--12------13--12--13--| 
---------------------------------13--|------------------------------| 
-----------------------------14------|------------------------------| 
-------------------------------------|------------------------------| 
-------------------------------------|------------------------------| 
-------------------------------------|------------------------------| 
 
 
                                                                    
------------------------|--12--13--12-13-12-13-12---------12--13--| 
--15----------------13--|-----------------------------13----------| 
----------------14------|-------------------------14--------------| 
------------------------|-----------------------------------------| 
------------------------|-----------------------------------------| 
------------------------|-----------------------------------------| 
 
 
                                                                                 
--12-13-12-13-12-------------12--13--|--15b-----13-12-------------------|------| 
-------------------------13----------|----------------15----------------|------| 
---------------------14--------------|----------------------------------|------| 
-------------------------------------|----------------------------------|------| 
-------------------------------------|----------------------------------|------| 
-------------------------------------|----------------------------------|------| 
 
 
_______________________________________________________ 
Contribuição: Paulo Frade([email protected]) 
	  

Search Paypal
auto scroll beats size up size down change color hide chords drawings
tab show chords e-chords YouTube Clip e-chords hide all tabs e-chords go to top tab