Eruca Sativa

Fuera O Mas Alla

Eruca Sativa

tabs Beginner beginner

by  TAMAMOREIRA

save to print version add songbook text version e-mail correct tuner
chordsukulelecavacokeyboardtabbassdrumsharmonicaflute Guitar Pro
close

there isn't a video lesson for this song

chords

Fuera O Mas Alla

	  		Fuera o mas alla - Eruca Sativa. 
Para que suene bien la 6ta cuerda tiene que estar en Re, de lo contrario seguramente no suene ni parecido. 

Riff 1: 

 
|----------------------------------------------------------------| 
|----------------------------------------------------------------| 
|----------------------------------------------------------------| 
|----------------------------------------------------------------| 
|----------------------------------------------------------------| 
|-0-12-0-10-0-9-10-0-7-0--3-3-3--0-12-0-10-0-9-10-0-7-0-15-15-15-| 
 

(Esta parte en vez de tocar la cuerda al aire se puede hacer un pul off) 

Riff 2 (Estrofa): 

 
|-------------------------| 
|-------------------------| 
|-5-7-5-5/7-777777-5-7----|  Todo lo que existe... 
|-0-0-0-0-0-000000-0-0 ---|  (..)ríe en tu mirada 
|-------------------------| 
|-------------------------| 
 

Y lo acabo de encontrar... 

 
|--------|   |--------------------------| 
|--------|   |--------------------------| 
|--------|x1 |--------------------------| 
|--------|   |--------------------------| x4 
|--------|   |--------------10----------| 
|-7-7-5--|   |---7-10-11-12----12p10----| 
 


Riff 3: Estribilo: 

Hey, no me engañas facil...        Hey, ya fue suficiente 

 
|---------------------------------|----------------------------------| 
|---------------------------------|----------------------------------| 
|-----------------------0-------0-|------------------------0------0--| 
|-7/1------3----------0-------0---|--7/1------3----------0------0----| 
|-5/3--3p5---5------2-------3-----|--5/3--3p5---5------2------1------| 
|--------------3-3~---------------|---------------3-3~---------------| 
 

 
|---------------------------------|----------------------------------| 
|---------------------------------|----------------------------------| Acá hace lo mismo, solo que 
|-----------------------0-------0-|------------------------0--0------| al tocar el final toca 5ta - 
|-7/1------3----------0-------0---|--7/1------3----------0----0------| 4ta y 3ra sin el arpegio. 
|-5/3--3p5---5------2-------3-----|--5/3--3p5---5------2------1------| 
|--------------3-3~---------------|---------------3-3~---------------| 
 


Vuelve hacer la Intro x4: 

 
|----------------------------------------------------------| 
|----------------------------------------------------------| 
|----------------------------------------------------------| 
|----------------------------------------------------------| 
|----------------------------------------------------------| 
|-0-12-0-10-0-9-10-0-7-0--3-3-3--0-12-0-10-9-0-7--15-15-15-| 
 


Todo lo que hiciste |   Durante esta estrofa 
a tu alrededor      |   toca el mismo riff (Intro) 
te hace invisible   | 
y solo eso sos      | 


Y solo eso sos.. 
 
              |--------------------------| 
              |--------------------------| 
              |--------------------------| 
              |--------------------------| x4 
              |--------------10----------| 
              |---7-10-11-12----12p10----| 
 


 
|---------------------|-------------------------------------| Ya no hay mas, se te quema el 
|-6-8-6-6/8-8888-6-8--|-------------------------------------| cobre y lloras... 
|-5-5-5-5-5-5555-5-5--|--- ---------------------------------| (...)o el mapa hacia las puertas que 
|-0-0-0-0-0-0000-0-0--|-------------------------------------| abren las cabezas? 
|---------------------|-------------------------------------| 
|---------------------|-------------------------------------| 
 


REPITE RIFF 3:(Estribilo) 


Pre Solo: 

Hey, hey, hey... 

 
|-------------------------------------| 
|-------------------------------------| 
|-77777777-4444-5555------------------| x4 
|-77777777-4444-5555------------------| 
|-55555555-2222-3333------------------| 
|-------------------------------------| 
 


Solo final: 

 
|--------10-12-13--------------------17/--| 
|-----------------------------------------| 
|-----10----------------14~-------16------| x2 
|-/12-------------12/15-----13/17---------| 
|-----------------------------------------| 
|-----------------------------------------| 
 

 
|----------------------------------------------------| 
|----------------------------------------------------| 
|----------------------------------------------------|x2 
|----------------------------------------------------| 
|-12-12-12-15/-12-12-12-15-12-10-10-10-15/-9-9-9-10--| 
|-12-12-12-15/-12-12-12-15-12-10-10-10-15/-9-9-9-10--| 
 

 
|--------10-12-13--------------------17/--| 
|-----------------------------------------| 
|-----10----------------14~-------16------| x2 (Igual que la primer parte del solo) 
|-/12-------------12/15-----13/17---------| 
|-----------------------------------------| 
|-----------------------------------------| 
 


 
|----------------------------------------------------|   |----------------| 
|----------------------------------------------------|   |----------------| 
|----------------------------------------------------|x2 |----------------| 
|----------------------------------------------------|   |----------------| 
|-12-12-12-15/-12-12-12-15-12-10-10-10-15/-9-9-9-10--|   |-12-12-12-15/---| 
|-12-12-12-15/-12-12-12-15-12-10-10-10-15/-9-9-9-10--|   |-12-12-12-15/---| 
 


Bueno, espero que le haya servido.Recuerden que la 6ta cuerda tiene que estar en un Re, de lo contrario no sonara ni parecido. Saludos 

Aguante ERUCA SATIVA!!!!! 
		  

See also:

tabs Detonautas - Outro lugar tabs Legião Urbana - Tempo Perdido(solo inicial ver.) tabs Paralamas do Sucesso - Meu erro tabs Legião Urbana - Pais e Filhos(solo) tabs Legião Urbana - Há Tempos tabs Nando Reis - Luz do Olhos
e-chords

Other versions:

tabs Eruca Sativa - Fuera O Mas Alla
auto scroll beats size up size down change color hide chords drawings
tab show chords e-chords YouTube Clip e-chords hide all tabs e-chords go to top tab

share