Eric Weissberg

Duelling Banjos

Eric Weissberg

tabs

by  AMAN_CLAUDINO

save to print version add songbook text version e-mail correct tuner
chordsukulelecavacokeyboardtabbassdrumsharmonicaflute Guitar Pro
close

there isn't a video lesson for this song

chords

Duelling Banjos

	  		

Tuning:Standard 
                A  A  A   D  A 
e|-----------5--9--9--9--14--9-----------------------------------------------| 
B|---------5----11-11-11-15--11--2-3-5-2-3---2-------------0---0-------------| 
G|-------5------9--9--9--14--9-------------4---2-4---0-0-2---0---2-----------| 
D|-----5-------------------------------------------0-------------------------| 
A|---5-----------------------------------------------------------------------| 
E|-5-------------------------------------------------------------------------| 

e|---------------------------------------------------------------------------| 
B|---------------------------------------------------------------------------| 
G|---------------------------1-2-4-2-1---------------------------1-2-4-2-1---| 
D|-------------------2-2-2-4-----------------------------2-2-2-4-------------| now speed up 
A|-----------0-2-0-------------------------------0-2-0-----------------------| 
E|-0-0-0-2-4-------4-------------------0-0-0-2-4-------4---------------------| 
   A  A  A   D  A 
e|-9--9--9--14--9------------------------------------------------------------| 
B|-11-11-11-15--11--2-3-5-2-3---2-------------0---0--------------------------| 
G|-9--9--9--14--9-------------4---2-4---0-0-2---0---2------------------------| 
D|------------------------------------0--------------------------------------| 
A|---------------------------------------------------------------------------| 
E|---------------------------------------------------------------------------| 

e|---------------------------------------------------------------------------| 
B|---------------------------------------------------------------------------| 
G|---------------------------------------------------------------------------| 
D|---------------------------------------------------------------------------| 
A|----------------2-3-4-5---5---5---5-------------7-7------------------------| 
E|--4-5-0-5-0-5-0---------5---5---5---5-4-5-0-5-0-----5----------------------| 

e|---------------------------------------------------------------------------| 
B|---------------------------------------------------------------------------| 
G|---------------------------1-2-4-2-1---------------------------------------| 
D|-------------------2-2-2-4-------------------------------------------------| 
A|-----------0-2-0-------------------------------0-2-0-------------0-2-0-----| 
E|-0-0-0-2-4-------4-------------------0-0-0-2-4-------4-0-0-0-2-4-------4---| 

   A  A  A   D  A 
e|-9--9--9--14--9------------------------------------------------------------| 
B|-11-11-11-15--11--2-3-5-2-3---2-------------0---0--------------------------| 
G|-9--9--9--14--9-------------4---2-4---0-0-2---0---2------------------------| 
D|------------------------------------0--------------------------------------| 
A|---------------------------------------------------------------------------| 
E|---------------------------------------------------------------------------| 

e|---------------------------------------------------------------------------| 
B|---------------------------------------------------------------------------| 
G|---------------------------------------------------------------------------| 
D|---------------------------------------------------------------------------| 
A|----------------2-3-4-5---5---5---5-------------7-7------------------------| 
E|--4-5-0-5-0-5-0---------5---5---5---5-4-5-0-5-0-----5----------------------| 
		  

Full key step upFull key step up
Half key step upHalf key step up
Half key step downHalf key step down
Full key step downFull key step down
hide glossary

See also:

tabs Deep Purple - Demonds Eye tabs Deep Purple - Money Talks tabs Ira! - Eu Quero Sempre Mais (Com Pitty, intro) tabs Albert Hammond Jr - Holiday tabs Deep Purple - Smoke on the water (intro) tabs Deep Purple - Smoke on the Water (ver. 2)
e-chords

Other versions:

tabs Charlie Daniels - Duelling Banjos tabs Eric Weissberg - Duelling Banjos
auto scroll beats size up size down change color hide chords drawings
tab show chords e-chords YouTube Clip e-chords hide all tabs e-chords go to top tab

share