Enslaved

Gylfaginning

Enslaved

tabs nolevel nolevel

by  PAULANTUNES

save to print version add songbook text version e-mail correct tuner
chordsukulelecavacokeyboardtabbassdrumsharmonicaflute Guitar Pro
close

there isn't a video lesson for this song

chords

Gylfaginning

	  		

  intro                          Main Part 
e|------------------------------|---------------------------------------------| 
B|------------------------------|---------------------------------------------| 
G|-13---13-13---13-13---13/9----|---13---------13--------13-----------9-------| 
D|-13---13-13---13-13---13/9----|---13---------13--------13---------8-9-------| 
A|-11---11-11---11-11---11/7----|---11---------11--------11---------8-7-------| 
E|------------------------------|------0-0-0-0----0-0-0-0---0-0-0-0-6---------| 
                                   p.m.-------    -------   --------- 

                  x4                 x2  
e|----------------|------------------| 
B|----------------|------------------| 
G|---4----------o-|-------3--------o-| 
D|-2---2-1-3----o-|-----5---5-4-6--o-| 
A|----------------|------------------| 
E|----------------|------------------| 
   
solo 
e|----------------------------------------------------------------------------------| 
B|--------------------------------------12-11------------------12-11----------------| 
G|--9--8/-13~--9-8-6-9-8/--13~-9-8-6-9-8------9-8-9-12-9-8-6-9-8-----9-8-9-12-9-8-6-| 
D|----------------------------------------------------------------------------------| 
A|----------------------------------------------------------------------------------| 
E|----------------------------------------------------------------------------------| 
   not sure about this part  
e|---------------------------------------------------------------------------| 
B|----------12p11p9p8----------12p11p9p8-------------------------------------| 
G|-12p9p8p6-----------12p9p8p6-----------------------------------------------| 
D|---------------------------------------------------------------------------| 
A|---------------------------------------------------------------------------| 
E|---------------------------------------------------------------------------| 

e|----------------------------------------------------------------------------------| 
B|----------------------------------------------------------------------------------| 
G|----------------------------------------------------------------------------------| 
D|--9-------9--------9--------9-7-7--7-7-10--------10-------10-------10-7-7--7-7----| 
A|--7-------7--------7--------7-5-5--5-5-7---------7--------7--------7--5-5--5-5----| 
E|---0-0-0-0--0-0-0-0--0-0-0-0-------------0-0-0-0---0-0-0-0--0-0-0-0---------------| 
     -------  -------  -------             -------   -------  ------- 
e|----------------------------------------------|--------------------------------| 
B|----------------------------------------------|--------------------------------| 
G|----8--10--8--8h9~-----8--10--8--8h11~1/2b~---|-o---------------------------o--| 
D|-9--------------------------------------------|-o--------8-10-8-9----9\11---o--| 
A|-7--------------------------------------------|----------6-8--6-7----7\9-------| 
E|----------------------------------------------|---0-0-0-0----------------------| 
                                                    ------- 
e|-----|--------------------------------------------| 
B|-----|--------------------------------------------| 
G|-----|-o----------------------------------------o-| 
D|-9/11|-o---------8-10-8-9---------8-10-8-9/11---o-| 
A|-7/9-|-----------6-8--6-7---------6-8--6-7/9------| 
E|-----|---0-0-0-0----------0-0-0-0-----------------| 
           -------          ------- 




************************************ 

| /   slide up 
| \   slide down 
| h   hammer-on 
| p   pull-off 
| ~   vibrato 
| +   harmonic 
| x   Mute note 
| b   Bend 
| pb  Pre-bend 
| br  Bend release 
| pbr Pre-bend release 
| brb Bend release bend 

************************************ 
		  

See also:

tabs Deep Purple - Deep Purple - Smoke On The Water tabs Albert Hammond Jr - Miss Myrtle tabs Deep Purple - The Unwritten Law tabs Deep Purple - Pictures of Home tabs Deep Purple - Space Truckin tabs Deep Purple - Rat Bat Blues
e-chords

Other versions:

tabs Enslaved - Gylfaginning
auto scroll beats size up size down change color hide chords drawings
tab show chords e-chords YouTube Clip e-chords hide all tabs e-chords go to top tab

share with facebook