Enharjarna

Patrioten

Enharjarna

tabs nolevel nolevel

by  TAMAMOREIRA

save to print version add songbook text version e-mail correct tuner
chordsukulelecavacokeyboardtabbassdrumsharmonicaflute Guitar Pro
close

there isn't a video lesson for this song

chords

Patrioten

	  		

Lead: 

E|---------------------------------------------------------| 
B|---------------------------------------------------------| 
G|-----7--9--10--9--7------9-----------7---------9------7--| 
D|--7------------------10-----7--7--8-----8--10-----10-----| 
A|---------------------------------------------------------| 
E|---------------------------------------------------------| 

Verse: 

E|--------------------------------------------------| 
B|--------------------------------------------------| 
G|--------------------------------------------------| 
D|--7--7--7--7--7--7--7--7--5--5--5--5--2--2--2--2--| 
A|--5--5--5--5--5--5--5--5--3--3--3--3--0--0--0--0--| 
E|--------------------------------------------------| 

E|--------------------------------------------------| 
B|--------------------------------------------------| 
G|--------------------------------------------------| 
D|--3--3--3--3--5--5--5--5--7--7--7--7--7--7--7--7--| 
A|--1--1--1--1--3--3--3--3--5--5--5--5--5--5--5--5--| 
E|--------------------------------------------------| 

Pre Chorus: 

E|-------------------------------------------------------------------| 
B|-------------------------------------------------------------------| 
G|-------------------------------------------------------------------| 
D|---3---3---3---3---2---2---2---2---3---3---3---3---2---2---2---2---| 
A|---1---1---1---1---0---0---0---0---1---1---1---1---0---0---0---0---| 
E|-------------------------------------------------------------------| 

E|-------------------------------------------------------------------| 
B|-------------------------------------------------------------------| 
G|-------------------------------------------------------------------| 
D|---3---3---3---3---2---2---2---2---3---3---3---3---5---5---5---5---| 
A|---1---1---1---1---0---0---0---0---1---1---1---1---3---3---3---3---| 
E|-------------------------------------------------------------------| 

Chorus: 

E|--------------------------------------------------| 
B|--------------------------------------------------| 
G|--------------------------------------------------| 
D|--7--7--7--7--7--7--7--7--3--3--3--3--3--3--3--3--| 
A|--5--5--5--5--5--5--5--5--1--1--1--1--1--1--1--1--| 
E|--------------------------------------------------| 

E|--------------------------------------------------| 
B|--------------------------------------------------| 
G|--------------------------------------------------| 
D|--5--5--5--5--5--5--5--5--7--7--7--7--7--7--7--7--| 
A|--3--3--3--3--3--3--3--3--5--5--5--5--5--5--5--5--| 
E|--------------------------------------------------| 
		  

See also:

tabs Doa - Sexyest Girl tabs Deep Purple - Smoke on the water (intro) tabs Deep Purple - Highway Star tabs Albert Hammond Jr - Holiday tabs Deep Purple - Deep Purple - Smoke On The Water tabs Deep Purple - Ted The Mechanic
e-chords

Other versions:

tabs Enharjarna - Patrioten
auto scroll beats size up size down change color hide chords drawings
tab show chords e-chords YouTube Clip e-chords hide all tabs e-chords go to top tab

share with facebook