Emperor X

Canada Day

Emperor X

tabs

by  LUCICAMARGO

save to print version add songbook text version e-mail correct tuner
chordsukulelecavacokeyboardtabbassdrumsharmonicaflute Guitar Pro
close

there isn't a video lesson for this song

chords

Canada Day

	  		 

Intro/Verse: 
E|--------------------------------------------------| 
B|--------0-----------0-----------0-----------------| 
G|-----------0-----------0-----------0-----------0--| 
D|-----2-----------2-----------2--------------4-----|  x7 
A|--3-----------3-----------3-----------5--5--------| 
E|--------------------------------------------------| 


Bridge: 
E|--------------------------------------------------| 
B|--------0-----------------------0-----------------| 
G|-----------0-----------0-----------0-----------0--| 
D|-----2--------------4--------2--------------4-----| 
A|--3-----------5--5--------3-----------5--5--------| 
E|--------------------------------------------------| 
                                           it said: 

Chorus: 
E|------------------------------------------------------|--------------------------------------------0-----| 
B|---------0------------0------------0------------0-----|--------0-----------0-----------0-----------------| 
G|------------0------------0------------0------------0--|-----------0-----------0-----------0-----------0--| 
D|------0------------0------------0------------0--------|-----0-----------0-----------0-----------0--------| 
A|--10-----------10-----------12-----------12-----------|--3-----------5-----------7-----------5-----------| 
E|------------------------------------------------------|--------------------------------------------------| 
i'd rather live in my basement 

E|------------------------------------------------------|--------------------------------------------------| 
B|---------0------------0------------0------------0-----|--------0-----------0-----------0-----------0-----| 
G|------------0------------0------------0------------0--|-----------0-----------0-----------0-----------0--| 
D|------0------------0------------0------------0--------|-----0-----------0-----------0-----------0--------| 
A|--10-----------10-----------12-----------12-----------|--3-----------5-----------2-----------5-----------| 
E|------------------------------------------------------|--------------------------------------------------| 
i'd rather cultivate palm trees 

E|------------------------------------------------------|--------------------------------------------------| 
B|---------0------------0------------0------------0-----|--------0-----------0-----------0-----------0-----| 
G|------------0------------0------------0------------0--|-----------0-----------0-----------0-----------0--| 
D|------0------------0------------0------------0--------|-----0-----------0-----------0-----------0--------| 
A|--10-----------10-----------12-----------12-----------|--3-----------5-----------7-----------9-----------| 
E|------------------------------------------------------|--------------------------------------------------| 
i'd rather move to new england 

E|------------------------------------------------------|--------------------------------------------------| 
B|---------0------------0------------0------------0-----|--------0-----------0-----------0-----------------| 
G|------------0------------0------------0------------0--|-----------0-----------0-----------0-----------0--| 
D|------0------------0------------0------------0--------|-----2-----------2-----------2--------------4-----| 
A|--10-----------10-----------12-----------12-----------|--3-----------3-----------3-----------5--5--------| 
E|------------------------------------------------------|--------------------------------------------------| 


Interlude: x2 
E|--------------------------------------------------|--------------------------------------------------| 
B|--------0-----------0-----------0-----------0-----|--------0-----------0-----------0-----------0-----| 
G|-----------0-----------0-----------0-----------0--|-----------0-----------0-----------0-----------0--| 
D|-----0-----------0-----------0-----------0--------|-----0-----------0-----------0-----------0--------| 
A|--3-----------5-----------7-----------5-----------|--3-----------5-----------2-----------5-----------| 
E|--------------------------------------------------|--------------------------------------------------| 

E|--------------------------------------------------|--------------------------------------------------| 
B|--------0-----------0-----------0-----------0-----|--------0-----------0-----------0-----------0-----| 
G|-----------0-----------0-----------0-----------0--|-----------0-----------0-----------0-----------0--| 
D|-----0-----------0-----------0-----------0--------|-----0-----------0-----------0-----------0--------| 
A|--3-----------5-----------7-----------9-----------|--3-----------5-----------2-----------5-----------| 
E|--------------------------------------------------|--------------------------------------------------| 

 
		  

See also:

tabs Ryan Cabrera - On the way down tabs Maroon 5 - She will be loved (intro) tabs Black Eyed Peas - My humps/ver.2 tabs Pink - Who knew tabs Phantom Planet - California (ver. 2) tabs Michael Jackson - 3 Michael Jackson Riffs
e-chords

Other versions:

tabs Emperor X - Canada Day
auto scroll beats size up size down change color hide chords drawings
tab show chords e-chords YouTube Clip e-chords hide all tabs e-chords go to top tab

share