Eleven

All My Friends

Eleven

tabs

by  PAULLET3

save to print version add songbook text version e-mail correct tuner
chordsukulelecavacokeyboardtabbassdrumsharmonicaflute Guitar Pro
close

there isn't a video lesson for this song

chords

All My Friends

	  		Intro 

e|---------------------------------------------------------------------------------------| 
B|---------------------------------------------------------------------------------------| 
G|---------------------------------------------------------------------------------------| 
D|-------------12-----------------------------------------12-----------------------------| 
A|-----11---11----11------------------------------11---11----11--------------------------| 
E|-0-9----0----------0-0-12\0-0-0-12\0-0-12\0-0-9----0----------0-0-12\0-0-0-12\0-0-12\0-| 

e|-----------------------------------------------------------------| 
B|-----------------------------------------------------------------| 
G|-----------------------------------------------------------------| 
D|--------------12-------------------------------------------12----| 
A|------11---11----11--------------------------------11---11----11-| 
E|--0-9----0----------0-0-12\0-0-0-12\0-0-12\0---0-9----0----------| 

verse 1 

e|-----------------------------------------------------------| 
B|-----------------------------------------------------------| 
G|-----------------------------------------------------------| 
D|-3-3-6-6-5-5-0-0-3-0----12----3-3-6-6-5-5-0-0-3-0----12----| 
A|-3-3-6-6-5-5-0-0-3-0-11----11-3-3-6-6-5-5-0-0-3-0-11----11-| 
E|-3-3-6-6-5-5-0-0-3-0----------3-3-6-6-5-5-0-0-3-0----------| 

e|-------------------------------------------| 
B|-------------------------------------------| 
G|-------------------------------------------| 
D|-9-9-5-5-0-0----12----9-9-5-5-0-0----12----| 
A|-9-9-5-5-0-0-11----11-9-9-5-5-0-0-11----11-| 
E|-9-9-5-5-0-0----------9-9-5-5-0-0----------| 


e|-----------------------------------------------------------------------------| 
B|-----------------------------------------------------------------------------| 
G|-----------------------------------------------------------------------------| 
D|-------------12----3-3-6-6-5-5-0-0-3-0----12----3-3-6-6-5-5-0-0-3-0----12----| 
A|-----11---11----11-3-3-6-6-5-5-0-0-3-0-11----11-3-3-6-6-5-5-0-0-3-0-11----11-| 
E|-0-9----0----------3-3-6-6-5-5-0-0-3-0----------3-3-6-6-5-5-0-0-3-0----------| 

e|-------------------------------------------| 
B|-------------------------------------------| 
G|-------------------------------------------| 
D|-9-9-5-5-0-0----12----9-9-5-5-0-0----12----| 
A|-9-9-5-5-0-0-11----11-9-9-5-5-0-0-11----11-| 
E|-9-9-5-5-0-0----------9-9-5-5-0-0----------| 

Pre-Chorus 
All my friends are naked owls 

e|-----------------| 
B|-----------------| 
G|-----------------| 
D|-3-3-3-3-0-0-0-0-| 
A|-3-3-3-3-0-0-0-0-| 
E|-3-3-3-3-0-0-0-0-| 

They take the silence and make it loud 
e|-----------------| 
B|-----------------| 
G|-----------------| 
D|-3-3-3-3-0-0-0-0-| 
A|-3-3-3-3-0-0-0-0-| 
E|-3-3-3-3-0-0-0-0-| 

Chorus 

e|-----------------------| 
B|-----------------------| 
G|-----------------------| 
D|---------6-3-----------| 
A|-0-3-5-0-----5-5-3-5-3-| 
E|-----------------------| 

e|---------------------------------------------------------| 
B|---------------------------------------------------------| 
G|---------------------------------------------------------| 
D|---------6-3--8-8-8-8-5-5-5-3-2-0---------6-3------------| 
A|-0-3-5-0------8-8-8-8-5-5-5-3-2-0-0-3-5-0-----5-5-3-5-3--| 
E|--------------8-8-8-8-5-5-5-3-2-0------------------------| 

e|----------------------------------| 
B|----------------------------------| 
G|----------------------------------| 
D|---------6-3--8-8-8-8-5-5-5-3-2-0-| 
A|-0-3-5-0------8-8-8-8-5-5-5-3-2-0-| 
E|--------------8-8-8-8-5-5-5-3-2-0-| 

verse 2 

e|-----------------------------------------------------------------| 
B|-----------------------------------------------------------------| 
G|-----------------------------------------------------------------| 
D|--------------12-------------------------------------------12----| 
A|------11---11----11--------------------------------11---11----11-| 
E|--0-9----0----------0-0-12\0-0-0-12\0-0-12\0---0-9----0----------| 

Repeat verse 1 
Repeat Pre-Chorus 
Repeat Chorus 

Solo 
Play Intro 6 times 
Play Pre-Chorus  

Then play 

e|---------------------------------------------| 
B|---------------------------------------------| 
G|---------------------------------------------| 
D|-9-9-5-5-0-0-3-0-0-0-0-0-9-9-5-5-3---3---7-3-| 
A|-9-9-5-5-0-0-3-0-0-0-0-0-9-9-5-5---5---5-----| 
E|-9-9-5-5-0-0-3-0-0-0-0-0-9-9-5-5-------------| 

Then play Chorus  
Then play  

e|-----------------------| 
B|-----------------------| 
G|-----------------------| 
D|---------6-3-----------| 
A|-0-3-5-0-----5-5-3-5-3-| 
E|-----------------------| 

e|----------------------------------| 
B|----------------------------------| 
G|----------------------------------| 
D|---------6-3--8-8-8-8-5-5-5-3-2-0-| 
A|-0-3-5-0------8-8-8-8-5-5-5-3-2-0-| 
E|--------------8-8-8-8-5-5-5-3-2-0-| 

Then play Intro 4 times 

And then the song ends 



************************************ 

| \  Slide down 

************************************ 
		  

See also:

tabs Deep Purple - Smoke on the water (ver. 3) tabs Albert Hammond Jr - Holiday tabs Deep Purple - When a Blind man cries tabs Deep Purple - The Unwritten Law tabs Deep Purple - Highway Star tabs Ira! - Núcleo Base ( Acústico MTV)
e-chords

Other versions:

tabs Cherry Glazerr - All My Friends tabs Eleven - All My Friends
auto scroll beats size up size down change color hide chords drawings
tab show chords e-chords YouTube Clip e-chords hide all tabs e-chords go to top tab

share