Don Broco

Money Power Fame

Don Broco

tabs

by  IRONPOWER4EVER

save to print version add songbook text version e-mail correct tuner
chordsukulelecavacokeyboardtabbassdrumsharmonicaflute Guitar Pro
close

there isn't a video lesson for this song

chords

Money Power Fame

	  		

Tuning: Drop C (C G C F A D) 


Intro 
Guitar 1: 
D||---------------------------------------------| 
A||------------------------------------------6--| 
F||-----------7----------7--7-------------7--5--| 
C||--5--7---x-x--5h7--x--x--x--5~---7--x--x--5--| 
G||--5--5---x-5--5----x--5--5--5~---5--x--5-----| 
C||--0--0---x----0----x--------0~---0--x--------| 


Guitar 1/2: 
D||----------------------------------------------------------| 
A||------------------------------------------6--5--6--5-5-5--| 
F||-----------7----------7--7-------------7--5--5--5--5-5-5--| 
C||--5--7---x-x--5h7--x--x--x--5~---7--x--x--5--5--5--5-5-5--| 
G||--5--5---x-5--5----x--5--5--5~---5--x--5------------------| 
C||--0--0---x----0----x--------0~---0--x---------------------| 


D||---------------------------------------------------------------| 
A||----------------------------------------------6-6-6-6-6-6-6-6--| 
F||-----------7---------7-------------------7----5-5-5-5-5-5-5-5--| 
C||--5--7---x-x--5h7--x-x-------------7p5-x-x----5-5-5-5-5-5-5-5--| x2 
G||--5--5---x-5--5----x-5------5------5---x-5---------------------| 
C||--0--0---x----0----x------0---0~---0---x-----------------------| 
                             . 


Verse 
Guitar 1: 
D||-----------------------------------|-----------------------------------| 
A||-----------------------------------|----------------6-6-6-6-6-6p5-5-5--| 
F||--5h7-7-7-7p5-5-7-7-5-5-5-7p5-5-5--|--5h7-7-7-7p5-5--------------------| 
C||-----------------------------------|-----------------------------------| 
G||-----------------------------------|-----------------------------------| 
C||-----------------------------------|-----------------------------------| 
         . .     .   .   . .     . .         . .     .   .   . .     . . 

D||-----------------------------------|-----------------------------------| 
A||-----------------------------------|-----------------------------------| 
F||--5h7-7-7-7p5-5-7-7-5-5-5-7p5-5-5--|--5h7-7-7-7p5-5-7-7-5-5-5-7p5-5-5--| 
C||-----------------------------------|-----------------------------------| x2 
G||-----------------------------------|-----------------------------------| 
C||-----------------------------------|-----------------------------------| 
         . .     .   .   . .     . .         . .     .   .   . .     . . 



Pre-Chorus 
Guitar 1/2: 
D||-----------------------------------------------| 
A||--8-8-10-10-10-------8-8-10-10-10-10-10-10-10--| 
F||---------------10-10---------------------------| 
C||-----------------------------------------------| 
G||-----------------------------------------------| 
C||-----------------------------------------------| 
     . . .  .  .  .  .  . . .  .  .  .  .  .  . 


D||--------------------------------------------------------------10--| 
A||--8-8-10101010101010b1111111111111111r101010101010101010101010----| 
F||------------------------------------------------------------------| 
C||------------------------------------------------------------------| 
G||------------------------------------------------------------------| 
C||------------------------------------------------------------------| 
     . . . . . . .      (^ 11's) 


D||-----------------------------------| 
A||--5-5---6---5---5-6-6-6-6-6-6-6-6--| 
F||--5-5---5---5---5-5-5-5-5-5-5-5-5--| 
C||--5-5---5---5---5-5-5-5-5-5-5-5-5--| 
G||-----------------------------------| 
C||-----------------------------------| 



Chorus 
Guitar 1/2: 
D||----------------------------------------------------------| 
A||------------------------------------------6--5--6--5-5-5--| 
F||-----------7----------7--7-------------7--5--5--5--5-5-5--| 
C||--5--7---x-x--5h7--x--x--x--5~---7--x--x--5--5--5--5-5-5--| 
G||--5--5---x-5--5----x--5--5--5~---5--x--5------------------| 
C||--0--0---x----0----x--------0~---0--x---------------------| 


D||--------------------------------------------------------------------------| 
A||---------------------------------------------------------6-6-6-6-6-6-6-6--| 
F||---------------------------------------------------------5-5-5-5-5-5-5-5--| 
C||-----------x-10---------x-12--------------------x--12----5-5-5-5-5-5-5-5--| x2 
G||--10--12---x-8---10h12--x-8-------12------12p10-x--8----------------------| 
C||--8---8----x-8---8------x-8-----0----8~---8-----x--8----------------------| 
                                   . 

D||--------------------------| 
A||--------------------------| 
F||-----------7----------7~--| 
C||--5--7---x-x--5h7--x--x---| 
G||--5--5---x-5--5----x--5~--| 
C||--0--0---x----0----x------| 



Verse 
Guitar 1: 
D||-----------------------------------|-----------------------------------| 
A||-----------------------------------|----------------6-6-6-6-6-6p5-5-5--| 
F||--5h7-7-7-7p5-5-7-7-5-5-5-7p5-5-5--|--5h7-7-7-7p5-5--------------------| 
C||-----------------------------------|-----------------------------------| 
G||-----------------------------------|-----------------------------------| 
C||-----------------------------------|-----------------------------------| 
         . .     .   .   . .     . .         . .     .   .   . .     . . 

D||-----------------------------------|-----------------------------------| 
A||-----------------------------------|-----------------------------------| 
F||--5h7-7-7-7p5-5-7-7-5-5-5-7p5-5-5--|--5h7-7-7-7p5-5-7-7-5-5-5-7p5-5-5--| 
C||-----------------------------------|-----------------------------------| 
G||-----------------------------------|-----------------------------------| 
C||-----------------------------------|-----------------------------------| 
         . .     .   .   . .     . .         . .     .   .   . .     . . 


D||------------------------------------------------------------------------------| 
A||--13p10---10h13p10---10--10---10--10---10h13p10---10h13p10---10--10---10--10--| 
F||-----------------------12-------12-----------------------------12-------12----| 
C||------------------------------------------------------------------------------| 
G||------------------------------------------------------------------------------| 
C||------------------------------------------------------------------------------| 


D||---------------------------------------------------| 
A||---------------------------------------------------| 
F||--12p10-12p10-12p10-12p10-12p10-12p10-12p10-12p10--| 
C||---------------------------------------------------| 
G||---------------------------------------------------| 
C||---------------------------------------------------| 


D||-----------------------------------------------| 
A||-----------------------------------------------| 
F||--12p10-12p10-12p10-12p10----------------------| 
C||----------------------------10---10---10---10--| 
G||--------------------------12---12---12---12----| 
C||-----------------------------------------------| 



Pre-Chorus 
Guitar 1/2: 
D||-----------------------------------------------| 
A||--8-8-10-10-10-------8-8-10-10-10-10-10-10-10--| 
F||---------------10-10---------------------------| 
C||-----------------------------------------------| 
G||-----------------------------------------------| 
C||-----------------------------------------------| 
     . . .  .  .  .  .  . . .  .  .  .  .  .  . 


D||--------------------------------------------------------------10--| 
A||--8-8-10101010101010b1111111111111111r101010101010101010101010----| 
F||------------------------------------------------------------------| 
C||------------------------------------------------------------------| 
G||------------------------------------------------------------------| 
C||------------------------------------------------------------------| 
     . . . . . . . 


D||-----------------------------------| 
A||--5-5---6---5---5-6-6-6-6-6-6-6-6--| 
F||--5-5---5---5---5-5-5-5-5-5-5-5-5--| 
C||--5-5---5---5---5-5-5-5-5-5-5-5-5--| 
G||-----------------------------------| 
C||-----------------------------------| 



Chorus 
Guitar 1/2: 
D||----------------------------------------------------------| 
A||------------------------------------------6--5--6--5-5-5--| 
F||-----------7----------7--7-------------7--5--5--5--5-5-5--| 
C||--5--7---x-x--5h7--x--x--x--5~---7--x--x--5--5--5--5-5-5--| 
G||--5--5---x-5--5----x--5--5--5~---5--x--5------------------| 
C||--0--0---x----0----x--------0~---0--x---------------------| 


D||--------------------------------------------------------------------------| 
A||---------------------------------------------------------6-6-6-6-6-6-6-6--| 
F||---------------------------------------------------------5-5-5-5-5-5-5-5--| 
C||-----------x-10---------x-12--------------------x--12----5-5-5-5-5-5-5-5--| x2 
G||--10--12---x-8---10h12--x-8-------12------12p10-x--8----------------------| 
C||--8---8----x-8---8------x-8-----0----8~---8-----x--8----------------------| 
                                   . 



Bridge 
Guitar 1: 
D||---------------------------------------------------------------| 
A||---------------------------------------------------------------| 
F||----------------------------------------------12~-12-12-12-12--| 
C||--7-7-7-7---0---7~-7-7-7---0---7~-7-7-7---0---10~-10-10-10-10--| 
G||--5-5-5-5---0---5~-5-5-5---0---5~-5-5-5---0---10~-10-10-10-10--| 
C||--0-0-0-0---0---0~-0-0-0---0---0~-0-0-0---0---10~-10-10-10-10--| 


D||----------------------------------------| 
A||----------------------------------------| 
F||----------------------------------------| 
C||--10-10-10-10---10---10~-10-10-10---10--| 
G||--7--7--7--7----7----7~--7--7--7----7---| 
C||--7--7--7--7----7----7~--7--7--7----7---| 


Guitar 1/2: 
D||--------------------------| 
A||--------------------------| 
F||--------------------------| 
C||--12~----9~-----3~----8~--| 
G||--12~----10~----3~----8~--| 
C||--12~----9~-----3~----8~--| 


D||---------------------------------------------------------------| 
A||---------------------------------------------------------------| 
F||---------------------------------------------------------------| 
C||--7-7-7-7---0---7~-7-7-7---0---7~-7-7-7---0---14~-14-14-14-14--| 
G||--5-5-5-5---0---5~-5-5-5---0---5~-5-5-5---0---10~-10-10-10-10--| 
C||--0-0-0-0---0---0~-0-0-0---0---0~-0-0-0---0---10~-10-10-10-10--| 


D||----------------------------------------| 
A||----------------------------------------| 
F||----------------------------------------| 
C||--10-10-10-10---10---10~-10-10-10---10--| 
G||--7--7--7--7----7----7~--7--7--7----7---| 
C||--7--7--7--7----7----7~--7--7--7----7---| 


D||--------------------------| 
A||--------------------------| 
F||--------------------------| 
C||--12~----12~----9~----9~--| 
G||--8~-----8~-----5~----5~--| 
C||--8~-----8~-----5~----5~--| 



Interlude 
Guitar 1/2: 
D||-----------------------------------------------| 
A||--8-8-10-10-10-------8-8-10-10-10-10-10-10-10--| 
F||---------------10-10---------------------------| 
C||-----------------------------------------------| 
G||-----------------------------------------------| 
C||-----------------------------------------------| 
     . . .  .  .  .  .  . . .  .  .  .  .  .  . 


D||--------------------------------------------------------------10--| 
A||--8-8-10101010101010b1111111111111111r101010101010101010101010----| 
F||------------------------------------------------------------------| 
C||------------------------------------------------------------------| 
G||------------------------------------------------------------------| 
C||------------------------------------------------------------------| 
     . . . . . . . 



Chorus / Outro 
Guitar 1/2: 
D||--------10-----10----------------|--------10-----10----------------| 
A||--------10-----10----------------|--------10-----10----------------| 
F||---------------------------------|---------------------------------| 
C||--8--8-----8------8~----8-8-8-8--|--8--8-----8------5~----5-5-5-3--| 
G||--8--8-----8------8~----8-8-8-8--|--8--8-----8------5~----5-5-5-3--| 
C||--8--8-----8------8~----8-8-8-8--|--8--8-----8------5~----5-5-5-3--| 


D||---------------------------------|-----------------------------------| 
A||---------------------------------|--5-5---6---5---5-6-6-6-6-6-6-6-6--| 
F||------------7---7-7~----7-7-7-7--|--5-5---5---5---5-5-5-5-5-5-5-5-5--| 
C||--0--0---x--x---x-x-----x-x-x-x--|--5-5---5---5---5-5-5-5-5-5-5-5-5--| x3 
G||--0--0---x--5---5-5~----5-5-5-5--|-----------------------------------| 
C||--0--0---x-----------------------|-----------------------------------| 


D||---------------------------------------------------| 
A||---------------------------------------------------| 
F||-----------7---------7-------------------7----7~\--| 
C||--5--7---x-x--5h7--x-x-------------7p5-x-x--x-x~\--| 
G||--5--5---x-5--5----x-5------5------5---x-5--x-5~\--| 
C||--0--0---x----0----x------0---0~---0---x----x-0~\--| 




Tablature Legend 
---------------- 
 h   hammer-on 
 p   pull-off 
 b   bend 
 pb  pre-bend 
 r   release bend 
 ~   hold / vibrato 
 .   palm mute 
 /   slide up 
 \   slide down 
 *   pinch harmonic 
 '   natural harmonic 
 x   mute note 
 T   tap 
		  

Full key step upFull key step up
Half key step upHalf key step up
Half key step downHalf key step down
Full key step downFull key step down
hide glossary

See also:

tabs Jake Bugg - What Doesn't Kill You tabs Arctic Monkeys - Do I Wanna Know? tabs Oasis - Where Did It All Go Wrong tabs Bush - Everything zen tabs Oasis - DonīT Go Away tabs Oasis - Hey Hey My My (Into The Black)
e-chords

Other versions:

tabs Don Broco - Money Power Fame
auto scroll beats size up size down change color hide chords drawings
tab show chords e-chords YouTube Clip e-chords hide all tabs e-chords go to top tab

share