Dirty Projectors

Simple Request

Dirty Projectors

tabs

by  ALEFFEDERICO

save to print version add songbook text version e-mail correct tuner
chordsukulelecavacokeyboardtabbassdrumsharmonicaflute Guitar Pro
close

there isn't a video lesson for this song

chords

Simple Request

	  		 
Intro: 

e|-----------------------------------------x---7---7---9---x---5~----------5---x-x-5-7-5------------------| 
B|-----8---8-------8---8-------9~----------x---7---7---7---x---5~----------5---x-x-5-5-5---9---8---8-/-11-| 
G|-----9---9-------9---9-------9~----------x---7--?7---7---x---5~----------5---x-x-5-5-5------------------| 
D|-----9---9-------9---9-------9~----------x---7--?7---7---x---5~----------5---x-x-5-5-5-------6?--6-/-9--| 
A|-----7---7-------7---7-------7~-------------------------------------------------------------------------| 
E|-0-----------0-----------0------------------------------------------------------------------------------| 


e|-x---0------0---------------------0---0-----0---0----| 
B|-x---2------2-4p2p0---------------0---0-----0---0----| 
G|-x---2------2---------1-----------1---1-----1---1----| 
D|-x---2------2---------------------2---2-----2---2----| 
A|-x---0------0---------------------2---2-----2---2----| 
E|-------------------------0--------------0---------0--| 



verse 1 

                               I wanna know            where you are right now   who you are right no - o 
e|-----------------------------------------x---7---7---9---x---5-----------5-----x-5-7-5------------------| 
B|-----8---8-------8---8-------9-----------x---7---7---7---x---5-----------5-----x-5-5-5---9---8---8-/-11-| 
G|-----9---9-------9---9-------9-----------x---7--?7---7---x---5-----------5-----x-5-5-5------------------| 
D|-----9---9-------9---9-------9-----------x---7--?7---7---x---5-----------5-----x-5-5-5-------6?--6-/-9--| 
A|-----7---7-------7---7-------7--------------------------------------------------------------------------| 
E|-0-----------0-----------0------------------------------------------------------------------------------| 

    -  o   -    o - o - o - ow 
e|-x---0------0---------------------0---0-----0---0----0--| 
B|-x---2------2-4p2p0---------------0---0-----0---0----0--| 
G|-x---2------2---------1-----------1---1-----1---1----1--| 
D|-x---2------2---------------------2---2-----2---2----2--| 
A|-x---0------0---------------------2---2-----2---2----2--| 
E|-------------------------0--------------0---------------| 

                               I wonder why            and I wonder what              and I wonder ho- o 
e|-----------------------------------------x---7---7---9---x---5~----------5-----x-5-7-5------------------| 
B|-----8---8-------8---8-------9-----------x---7---7---7---x---5~----------5-----x-5-5-5---9---8---8-/-11-| 
G|-----9---9-------9---9-------9-----------x---7--?7---7---x---5~----------5-----x-5-5-5------------------| 
D|-----9---9-------9---9-------9-----------x---7--?7---7---x---5~----------5-----x-5-5-5-------6?--6-/-9--| 
A|-----7---7-------7---7-------7--------------------------------------------------------------------------| 
E|-0-----------0-----------0------------------------------------------------------------------------------| 

    -  o   -    o - o - o - ow 
e|-x---0------0---------------------0---0-----0---0----0--| 
B|-x---2------2-4p2p0---------------0---0-----0---0----0--| 
G|-x---2------2---------1-----------1---1-----1---1----1--| 
D|-x---2------2---------------------2---2-----2---2----2--| 
A|-x---0------0---------------------2---2-----2---2----2--| 
E|-------------------------0--------------0---------------| 

  Pro - mise chi - ld   pro - mise  me                       You'll see what  you  saw   to 
e|-0----0-0---0----0-0---0----0-0---0----0-0---0--------------0----0-0---0----0-0---0----0-0-| 
B|-2----2-2---0----0-0---2----2-2---0----0-0---0--------------2----2-2---0----0-0---2----2-2-| 
G|-2----2-2---1----1-1---2----2-2---1----1-1---1--------------2----2-2---1----1-1---2----2-2-| 
D|-2----2-2---2----2-2---2----2-2---2----2-2---2--------------2----2-2---2----2-2---2----2-2-| 
A|-0----0-0---2----2-2---0----0-0---2----2-2---2--------------0----0-0---2----2-2---0----0-0-| 
E|------------0----0-0--------------0----0-0---0--0-2-4---5--------------0----0-0------------| 

   day 
e|-0----0-0---0---0---0-0-| 
B|-0----0-0---0---0---0-0-| 
G|-1----1-1---1---1---1-1-| 
D|-2----2-2---2---2---2-2-| 
A|-2----2-2---2---2---2-2-| 
E|-0----0-0---0---0---0-0-| 

Pre Chorus 

   Oh             -            oh,              ah-ah       ah,                 ah-ah 
e|-----------------------------0-------0------x-2-4-2---x---------------------x-5-7-5---5---x-x-| 
B|-----------------------------2-------2------x-2-2-2---x---2-----------2-----x-5-5-5---5---x-x-| 
G|-0---0-------0---0-------0---2-------2------x-2-2-2---x---1-----------1-----x-5-5-5---5---x-x-| 
D|-0---0-------0---0-------0---2-------2------x-2-2-2---x---2-----------2-----x-5-5-5---5---x-x-| 
A|-2---2-------2---2-------2---0-------0--------------------1-----------1-------------------x-x-| 
E|-3---3-------3---3-------3----------------------------------------------------------------x-x-| 



Chorus 

   Ne - ver  will  we   give up                       Nev - er   will  we    turn 
e|-5----5-5---5----5-5-----------0----0-0---0---0----0-5----5-5---5----5-5-----------0----0-0---0----0-0---0-| 
B|-5----5-5---5----5-5-----------9----9-9---9---9----9-5----5-5---7----7-7-----------9----9-9---9----9-9---9-| 
G|-6----6-6---6----6-6-----------9----9-9---9---9----9-6----6-6---7----7-7-----------9----9-9---9----9-9---9-| 
D|-7----7-7---7----7-7-----------9----9-9---9---9----9-7----7-7---7----7-7-----------9----9-9---9----9-9---9-| 
A|-7----7-7---7----7-7-----------7----7-7---7---7----7-7----7-7---5----5-5-----------7----7-7---7----7-7---7-| 
E|-5----5-5---5----5-5---0~------0----0-0---0---0----0-5----5-5--------------0-------0----0-0---0----0-0---0-| 

   Ne - ver will   we    tire                         And   ca - pit - u  - late 
e|-5----5-5---5----5-5-----------0----0-0---0---0-0----5----5-5---5----5-5-----------0----0-0---0----0-0-| 
B|-5----5-5---5----5-5-----------9----9-9---9---9-9----5----5-5---7~---7-7-----------9----9-9---9----9-9-| 
G|-6----6-6---6----6-6-----------9----9-9---9---9-9----6----6-6---7~---7-7-----------9----9-9---9----9-9-| 
D|-7----7-7---7----7-7-----------9----9-9---9---9-9----7----7-7---7~---7-7-----------9----9-9---9----9-9-| 
A|-7----7-7---7----7-7-----------7----7-7---7---7-7----7----7-7---5~---5-5-----------7----7-7---7----7-7-| 
E|-5----5-5---5----5-5---0~------0----0-0---0---0-0----5----5-5--------------0-------0----0-0---0----0-0-| 



Bridge 

e|-----------------------------------------x---7---7---9---x---5-----------5---x-x-5-7-5------------------| 
B|-----8---8-------8---8-------9~----------x---7---7---7---x---5-----------5---x-x-5-5-5---9---8---8-/-11-| 
G|-----9---9-------9---9-------9~----------x---7--?7---7---x---5-----------5---x-x-5-5-5------------------| 
D|-----9---9-------9---9-------9~----------x---7--?7---7---x---5-----------5---x-x-5-5-5-------6?--6-/-9--| 
A|-----7---7-------7---7-------7~-------------------------------------------------------------------------| 
E|-0-----------0-----------0------------------------------------------------------------------------------| 


e|-x---0~-----0---------------------0---0-----0---0----0--| 
B|-x---2~-----2-4p2p0---------------0---0-----0---0----0--| 
G|-x---2~-----2---------1-----------1---1-----1---1----1--| 
D|-x---2~-----2---------------------2---2-----2---2----2--| 
A|-x---0~-----0---------------------2---2-----2---2----2--| 
E|-------------------------0--------------0---------------| 



verse 2 

                               I was alone           'Til I saw you lie               'Til I saw you li - 
e|-----------------------------------------x---7---7---9---x---5~----------5-----x-5-7-5------------------| 
B|-----8---8-------8---8-------9-----------x---7---7---7---x---5~----------5-----x-5-5-5---9---8---8-/-11-| 
G|-----9---9-------9---9-------9-----------x---7--?7---7---x---5~----------5-----x-5-5-5------------------| 
D|-----9---9-------9---9-------9-----------x---7--?7---7---x---5~----------5-----x-5-5-5-------6?--6-/-9--| 
A|-----7---7-------7---7-------7--------------------------------------------------------------------------| 
E|-0-----------0-----------0------------------------------------------------------------------------------| 


    -  i    -   i-i-i - i - ie 
e|-x---0------0---------------------0---0-----0---0----0--| 
B|-x---2------2-4p2p0---------------0---0-----0---0----0--| 
G|-x---2------2---------1-----------1---1-----1---1----1--| 
D|-x---2------2---------------------2---2-----2---2----2--| 
A|-x---0------0---------------------2---2-----2---2----2--| 
E|-------------------------0--------------0---------------| 

                               I was a bone           Now I break in half           Now I break in ha - a  
e|-----------------------------------------x---7---7---9---x---5~----------5-----x-5-7-5------------------| 
B|-----8---8-------8---8-------9-----------x---7---7---7---x---5~----------5-----x-5-5-5---9---8---8-/-11-| 
G|-----9---9-------9---9-------9-----------x---7--?7---7---x---5~----------5-----x-5-5-5------------------| 
D|-----9---9-------9---9-------9-----------x---7--?7---7---x---5~----------5-----x-5-5-5-------6?--6-/-9--| 
A|-----7---7-------7---7-------7--------------------------------------------------------------------------| 
E|-0-----------0-----------0------------------------------------------------------------------------------| 

   -   a   -    a-a-a - a - alf 
e|-x---0------0---------------------0---0---------------| 
B|-x---2------2-4p2p0---------------0---0---------------| 
G|-x---2------2---------1-----------1---1---------------| 
D|-x---2------2---------------------2---2---------------| 
A|-x---0------0---------------------2---2---------------| 
E|-------------------------0--------------0---0-2-4---5-| 

   Gone   a   mi - le   gone  a    day                        ?      ?   ?      ?   ?      ? 
e|-0----0-0---0----0-0---0----0-0---0----0-0---0--------------0----0-0---0----0-0---0----0-0-| 
B|-2----2-2---0----0-0---2----2-2---0----0-0---0--------------2----2-2---0----0-0---2----2-2-| 
G|-2----2-2---1----1-1---2----2-2---1----1-1---1--------------2----2-2---1----1-1---2----2-2-| 
D|-2----2-2---2----2-2---2----2-2---2----2-2---2--------------2----2-2---2----2-2---2----2-2-| 
A|-0----0-0---2----2-2---0----0-0---2----2-2---2--------------0----0-0---2----2-2---0----0-0-| 
E|------------0----0-0--------------0----0-0---0--0-2-4---5--------------0----0-0------------| 
                                                              Lyrics unknown for this part. 
   ? 
e|-0----0-0---0---0---0-0-| 
B|-0----0-0---0---0---0-0-| 
G|-1----1-1---1---1---1-1-| 
D|-2----2-2---2---2---2-2-| 
A|-2----2-2---2---2---2-2-| 
E|-0----0-0---0---0---0-0-| 



Pre Chorus 

   Oh             -            oh,              ah-ah       ah,                 ah-ah 
e|-----------------------------0-------0------x-2-4-2---x---------------------x-5-7-5---5---x-x-| 
B|-----------------------------2-------2------x-2-2-2---x---2-----------2-----x-5-5-5---5---x-x-| 
G|-0---0-------0---0-------0---2-------2------x-2-2-2---x---1-----------1-----x-5-5-5---5---x-x-| 
D|-0---0-------0---0-------0---2-------2------x-2-2-2---x---2-----------2-----x-5-5-5---5---x-x-| 
A|-2---2-------2---2-------2---0-------0--------------------1-----------1-------------------x-x-| 
E|-3---3-------3---3-------3----------------------------------------------------------------x-x-| 


Chorus 


   Ne - ver  will  we   give up                       Nev - er   will  we    turn 
e|-5----5-5---5----5-5-----------0----0-0---0---0----0-5----5-5---5----5-5-----------0----0-0---0----0-0---0-| 
B|-5----5-5---5----5-5-----------9----9-9---9---9----9-5----5-5---7~---7-7-----------9----9-9---9----9-9---9-| 
G|-6----6-6---6----6-6-----------9----9-9---9---9----9-6----6-6---7~---7-7-----------9----9-9---9----9-9---9-| 
D|-7----7-7---7----7-7-----------9----9-9---9---9----9-7----7-7---7~---7-7-----------9----9-9---9----9-9---9-| 
A|-7----7-7---7----7-7-----------7----7-7---7---7----7-7----7-7---5~---5-5-----------7----7-7---7----7-7---7-| 
E|-5----5-5---5----5-5---0-------0----0-0---0---0----0-5----5-5--------------0-------0----0-0---0----0-0---0-| 


  Ne - ver will   we    tire                         And   ca - pit - u  - late 
e|-5----5-5---5----5-5-----------0----0-0---0---0-0----5----5-5---5----5-5-----------0----0-0---0----0-0-| 
B|-5----5-5---5----5-5-----------9----9-9---9---9-9----5----5-5---7~---7-7-----------9----9-9---9----9-9-| 
G|-6----6-6---6----6-6-----------9----9-9---9---9-9----6----6-6---7~---7-7-----------9----9-9---9----9-9-| 
D|-7----7-7---7----7-7-----------9----9-9---9---9-9----7----7-7---7~---7-7-----------9----9-9---9----9-9-| 
A|-7----7-7---7----7-7-----------7----7-7---7---7-7----7----7-7---5~---5-5-----------7----7-7---7----7-7-| 
E|-5----5-5---5----5-5---0~------0----0-0---0---0-0----5----5-5--------------0-------0----0-0---0----0-0-| 



Outro 

e|-----------------------------------------x---7---7---9---x---5~----------5---x-x-5-7-5------------------| 
B|-----8---8-------8---8-------9~----------x---7---7---7---x---5~----------5---x-x-5-5-5---9---8---8-/-11-| 
G|-----9---9-------9---9-------9~----------x---7--?7---7---x---5~----------5---x-x-5-5-5------------------| 
D|-----9---9-------9---9-------9~----------x---7--?7---7---x---5~----------5---x-x-5-5-5-------6?--6-/-9--| 
A|-----7---7-------7---7-------7~-------------------------------------------------------------------------| 
E|-0-----------0-----------0------------------------------------------------------------------------------| 


e|-x---0------0--------------| 
B|-x---2------2-4p2p0--------| 
G|-x---2------2---------1----| 
D|-x---2------2--------------| 
A|-x---0------0--------------| 
E|-------------------------0-| 
		  

See also:

tabs Red Hot Chili Peppers - I Could Have Lied tabs Ben Harper - Diamonds on inside tabs Red Hot Chili Peppers - By The Way (ver. 2) tabs Audioslave - Show Me How To Live tabs Incubus - 11 A.M. tabs Red Hot Chili Peppers - Scar Tissue
e-chords

Other versions:

tabs Dirty Projectors - Simple Request
auto scroll beats size up size down change color hide chords drawings
tab show chords e-chords YouTube Clip e-chords hide all tabs e-chords go to top tab

share