Diante do Trono

Cheiro Das Águas Tab

Diante do Trono

Difficulty: EasyEasy

by eduardo%5Flyvio

tuner correct add songbook print version text version save to e-mail
chordsukuleleukulelecavacokeyboardtabbassdrumsharmonicsflute Guitar Pro
close

there isn't a video lesson for this song

chords

Cheiro Das Águas

  		Acompanha o Teclado 
G|---------------------------------------------------- 
D|---------------------------------------------------- 
e|--20-19-15------17------17--15-17-15---------------- 
B|-------------17------------------------------------- 
A|---------------------------------------------------- 
E|---------------------------------------------------- 
 
e|--15-17-20-19-15------17------17--15-17-15------15-- 
B|-------------------17------------------------------- 
G|---------------------------------------------------- 
D|---------------------------------------------------- 
A|---------------------------------------------------- 
E|---------------------------------------------------- 
 
e|--------15-13--------15-13-------------------------- 
B|--15-17--------13-----------13----15---------------- 
G|---------------------------------------------------- 
D|---------------------------------------------------- 
A|---------------------------------------------------- 
E|---------------------------------------------------- 
 
Solo de violão: 
                              s    s 
e-7p5--------------------7-5-7/8—-8/10---7-5--s---------s-s---------------s----| 
B-----5---s----------------------------------6/8---5-6-6/8\6-5-------5-6-6/8---| 
G---------/7-5-7-5----------------------------------------------5--------------| 
D------------------7--5--------------------------------------------------------| 
A------------------------------------------------------------------------------| 
E------------------------------------------------------------------------------| 
 
 

	  

Search Paypal
auto scroll beats size up size down change color hide chords drawings
tab show chords e-chords YouTube Clip e-chords hide all tabs e-chords go to top tab

share with facebook