Delirious

With You

Delirious

tabs

by  LUCICAMARGO

save to print version add songbook text version e-mail correct tuner
chordsukulelecavacokeyboardtabbassdrumsharmonicaflute Guitar Pro
close

there isn't a video lesson for this song

chords

With You

Year: 2004 - Album: World Service

	  		

Intro (Guitar One) 
e|------3-------3---------3-------3-------3-------3---------3-------3----| 
B|--5-------5--------5--------5-------5-------5--------5--------5--------| 
G|----5-------5---------5---5---5---5---5-------5---------5---5---5---5--| 
D|-----------------------------------------------------------------------| x2 
A|-----------------------------------------------------------------------| 
E|-----------------------------------------------------------------------| 

No guitar in verse one 

Chorus (Guitar One) 
e|----------------------------------------------------| 
B|--5-----5------5-----5------5-----5------5-----5----| 
G|-----5-----5------5-----5------5-----5------5-----5-| 
D|----------------------------------------------------| x4 
A|----------------------------------------------------| 
E|----------------------------------------------------| 

Interlude: Guitar One plays Riff One twice, while Guitar Two comes in and plays Riff Two twice. 

Riff One (Guitar One) 
e|--------3-----------3-------------3-----------3-----| 
B|--5-----------5------------5------------5-----------| 
G|-----5-----5-----5-----5-------5-----5-----5-----5--| 
D|----------------------------------------------------| 
A|----------------------------------------------------| 
E|----------------------------------------------------| 

Riff Two (Guitar Two) 
e|--------12----------12-----------15----------12-----| 
B|--15-13----13-13-12----13-13--------13-12-------13--| 
G|------------------------------12----------12--------| 
D|----------------------------------------------------| 
A|----------------------------------------------------| 
E|----------------------------------------------------| 

For Verse Two, Guitar One continues to play Riff One, while Guitar Two continues to play Riff Two. 
I'm not sure on how many times, so you'll need to listen to the track to figure it out.  They just 
repeat through the whole verse. 

The Chorus is then repeated, as before.  Guitar Two drops out. 

For the bridge, Guitar One plays the following power chord progression 
(listen to the track to get the timing): G#-G-C-F-G#-G-(C-Bb-F). 
The part in parentheses is played quickly at the very end of the bridge. 
It sounds like there may be a third guitar playing in the background of the bridge, but I can't 
hear it well enough to tab it. 

Following the bridge, the semi-solo begins, played by guitar three.  It's basically a lot of improvisation 
around riff B.  I've tried to tab it out as best I could. 

Semi-solo (Guitar Two) 
e|-------12----------12-----------15----------15-----------------12----------| 
B|-15-13----13-13-12----13--13-------13-13-------13--13-12-15-13----12-13----| 
G|-----------------------------12----------12-----------------------------12-| 
D|---------------------------------------------------------------------------| 
A|---------------------------------------------------------------------------| 
E|---------------------------------------------------------------------------| 

e|-15----------15-----------------------15-----------17----15----------------| 
B|----12-12-13----13-15-13--13----12----------12-----------------17----15----| 
G|-----------------------------12----12----12----12-----12----12----12----12-| 
D|---------------------------------------------------------------------------| 
A|---------------------------------------------------------------------------| 
E|---------------------------------------------------------------------------| 

e|-------------------12-----------12----------12-----------12----------12----| 
B|-13----12-------12--------13----------15-----------15-13----13-13-12-------| 
G|----12----12-14-------12-----12----12----12----12-----------------------12-| 
D|---------------------------------------------------------------------------| 
A|---------------------------------------------------------------------------| 
E|---------------------------------------------------------------------------| 

e|-15-----------------12------------15----17----------15-----12----------12-| 
B|-----13-12----15------------13----------------17--------13----13-15-13----| 
G|-----------12----12-----12-----12----12----12----12-----------------------| 
D|--------------------------------------------------------------------------| 
A|--------------------------------------------------------------------------| 
E|--------------------------------------------------------------------------| 

e|-----------------12------------------------12-----------------12----------| 
B|-13--12----13-------13-12-----13-----12-------13-13-----15-13----13-13----| 
G|--------12----12----------12------12----12----------12-----------------12-| 
D|--------------------------------------------------------------------------| 
A|--------------------------------------------------------------------------| 
E|--------------------------------------------------------------------------| 

e|--------------------12-----------------15----12------------------------12-| 
B|-12----13-----15-13-------13-----13-------13----13-12-----13-----15-------| 
G|----12-----12----------12----12-----12----------------12------12----12----| 
D|--------------------------------------------------------------------------| 
A|--------------------------------------------------------------------------| 
E|--------------------------------------------------------------------------| 

e|---------------15----12-----------------------12----------------------15---| 
B|----13----13------13----13-12----13-----15----------12----13----15-13----13| 
G|-12----12----12---------------12-----12----12----12----12----12------------| 
D|---------------------------------------------------------------------------| 
A|---------------------------------------------------------------------------| 
E|---------------------------------------------------------------------------| 

e|---------------------12-----------15----------------15----------------------| 
B|-12-----13-----15-13----12--------------13----15-13----13-12----13-----15-13| 
G|----12------12-------------12-12-----12----12----------------12-----12------| 
D|----------------------------------------------------------------------------| 
A|----------------------------------------------------------------------------| 
E|----------------------------------------------------------------------------| 

e|-12-----------15----------------12------------15-----------------12---------| 
B|----12--------------13----15-13--------13-----------12----15-----------12---| 
G|-------12-12-----12----12----------12------12----12----12----12-----12----12| 
D|----------------------------------------------------------------------------| 
A|----------------------------------------------------------------------------| 
E|----------------------------------------------------------------------------| 

e|-------12-----17-----12----15----------------12-----------------15----------| 
B|-13---------------13----13----13-12----13----------13----15---------13-15---| 
G|----12----12------------------------12----12----12----12----12------------12| 
D|----------------------------------------------------------------------------| 
A|----------------------------------------------------------------------------| 
E|----------------------------------------------------------------------------| 

e|-12----------| 
B|----13-12----| 
G|---------12--| 
D|-------------| 
A|-------------| 
E|-------------| 

For the Outro, Guitar Two continues to improvise around the semi-solo and Riff Two.  It's too hard to 
hear to tab out note for note.  Anyhow, just mess around with it until you find something you like. 
The band plays for about 22 measures during the outro. 

And that's all folks. 


************************************ 

| /   slide up 
| \   slide down 
| h   hammer-on 
| p   pull-off 
| ~   vibrato 
| +   harmonic 
| x   Mute note 
| b   Bend 
| pb  Pre-bend 
| br  Bend release 
| pbr Pre-bend release 
| brb Bend release bend 

************************************ 
		  

Full key step upFull key step up
Half key step upHalf key step up
Half key step downHalf key step down
Full key step downFull key step down
hide glossary

See also:

tabs Kelly Clarkson - Behind These Hazel Eyes tabs Michael Jackson - Beat it tabs Michael Jackson - Heal The World tabs Decode Acoustic - Paramore tabs Steven tyler & Santana - Just feel better(intro) tabs Michael Jackson - Billie Jean (Fingerstyle)
e-chords

Other versions:

tabs Ill Nino - With You tabs Jessica Simpson - With You tabs Linkin Park - With You tabs Boyce Avenue - With You tabs Chris Brown - With You tabs Delirious - With You
auto scroll beats size up size down change color hide chords drawings
tab show chords e-chords YouTube Clip e-chords hide all tabs e-chords go to top tab

share