Death Of An Era

Big Brother

Death Of An Era

tabs

by  TAMAMOREIRA

save to print version add songbook text version e-mail correct tuner
chordsukulelecavacokeyboardtabbassdrumsharmonicaflute Guitar Pro
close

there isn't a video lesson for this song

chords

Big Brother

	  		 
Tuning: (A,E,A,D,G,B,E) 

----------------------------------------------------------------------------------------------- 
----------------------------------------------------------------------------------------------- 
----------------------------------------------------------------------------------------------- 
----------------------------------------------------------------------------------------------- 
----------------------------------------------------------------------------------------------- 
----------------------------------------------------------------------------------------------- 
-13p12p0-0-0-0-00-0-0-13p12p0-0-0-0-13p12p0-0-0-0-13p12/8-8-8-8-88-8-8-8/5-5-5-5-5-5/3-3-3-3-3- 

------------------------------------------------------------------------ 
------------------------------------------------------------------------ 
------------------------------------------------------------------------ 
------------------------------------------------------------------------ 
------------------------------------------------------------------------ 
------------------------------------------------------------------------ 
-13p12p0-0-0-0-00-0-0-13p12p0-0-0-0-13p12p0-0-0-0-13p12/8-8-8-8-88-8-88- 

----------------------------------------------------------------------------------------------- 
----------------------------------------------------------------------------------------------- 
----------------------------------------------------------------------------------------------- 
----------------------------------------------------------------------------------------------- 
----------------------------------------------------------------------------------------------- 
----------------------------------------------------------------------------------------------- 
-13p12p0-0-0-0-00-0-0-13p12p0-0-0-0-13p12p0-0-0-0-13p12/8-8-8-8-88-8-8-8/5-5-5-5-5-5/3-3-3-3-3- 

----------------------------------------------------------------------------------- 
----------------------------------------------------------------------------------- 
----------------------------------------------------------------------------------- 
----------------------------------------------------------------------------------- 
----------------------------------------------------------------------------------- 
----------------------------------------------------------------------------------- 
-13p12p0-0-0-0-00-0-0-13p12p0-0-0-0-13p12p0-0-0-0-13p12/8-8-8-8-88-8-8-8/5-5-5-5-5- 

--------------------------------------------------------------------- 
--------------------------------------------------------------------- 
--------------------------------------------------------------------- 
--------------------------------------------------------------------- 
--------------------------------------------------------------------- 
----0000--------0000--------0000-1-4-0000--------00------------------ 
-1^-0000-0-0-1^-0000-0-0-1^-0000-1-4-0000-0-0-1^-00-4444444411111111- 
PM   ....        ....        ....     ....        .. 

----3*----------------- 
----3*----------------- 
----3*----------------- 
----3*----------------- 
----------------------- 
--------------0000----- 
-1^----0-0-1^-0000-0-0- 
PM             .... 

--------------------------------------------------------- 
--------xx---------xx------------------------------------ 
--------xx---------xx------------------------------------ 
--------xx---------xx------------------------------------ 
--------xx---------xx--------1------------------1---4444- 
----000--------000-------000-------0-000--0-000-----4444- 
-1^-000-----1^-000----1^-000---1-0-0-000--0-000---1-4444- 
PM   ...        ...       ...       . ...  . ... 

--------------------------------------------------------- 
--------xx---------xx------------------------------------ 
--------xx---------xx------------------------------------ 
--------xx---------xx------------------------------------ 
--------xx---------xx--------1------------------1---4444- 
----000--------000-------000-------0-000--0-000-----4444- 
-1^-000-----1^-000----1^-000---1-0-0-000--0-000---1-4444- 
PM   ...        ...       ...       . ...  . ... 

--------------------------------------------------------- 
--------xx---------xx------------------------------------ 
--------xx---------xx------------------------------------ 
--------xx---------xx------------------------------------ 
--------xx---------xx--------1------------------1---4444- 
----000--------000-------000-------0-000--0-000-----4444- 
-1^-000-----1^-000----1^-000---1-0-0-000--0-000---1-4444- 
PM   ...        ...       ...       . ...  . ... 

--------------------------------------------------------- 
--------xx---------xx------------------------------------ 
--------xx---------xx------------------------------------ 
--------xx---------xx------------------------------------ 
--------xx---------xx--------1------------------1---4444- 
----000--------000-------000-------0-000--0-000-----4444- 
-1^-000-----1^-000----1^-000---1-0-0-000--0-000---1-4444- 
PM   ...        ...       ...       . ...  . ...     .... 

-------------------------------------------------- 
-------------------------------------------------- 
-------------------------------------------------- 
-------------------------------------------------- 
-------------------------------------------------- 
-------------------------------------------------- 
-13p12p0-0-0-0-00-0-0-13p12p0-0-0-0-13p12p0-0-0-0- 

----------------------------------------------------------------------------------------------- 
----------------------------------------------------------------------------------------------- 
----------------------------------------------------------------------------------------------- 
----------------------------------------------------------------------------------------------- 
----------------------------------------------------------------------------------------------- 
----------------------------------------------------------------------------------------------- 
-13p12p0-0-0-0-00-0-0-13p12p0-0-0-0-13p12p0-0-0-0-13p12/8-8-8-8-88-8-8-8/5-5-5-5-5-5/3-3-3-3-3- 

----------------------------------------------------------------------------------------------- 
----------------------------------------------------------------------------------------------- 
----------------------------------------------------------------------------------------------- 
----------------------------------------------------------------------------------------------- 
----------------------------------------------------------------------------------------------- 
----------------------------------------------------------------------------------------------- 
-13p12p0-0-0-0-00-0-0-13p12p0-0-0-0-13p12p0-0-0-0-13p12/8-8-8-8-88-8-8-8/5-5-5-5-5-5/3-3-3-3-3- 

--------------------------------------------------------------------- 
--------------------------------------------------------------------- 
--------------------------------------------------------------------- 
--------------------------------------------------------------------- 
--------------------------------------------------------------------- 
----0000--------0000--------0000-1-4-0000--------00------------------ 
-1^-0000-0-0-1^-0000-0-0-1^-0000-1-4-0000-0-0-1^-00-4444444411111111- 
PM   ....        ....        ....     ....        .. 

--------------------------------------------------------------------- 
--------------------------------------------------------------------- 
--------------------------------------------------------------------- 
--------------------------------------------------------------------- 
--------------------------------------------------------------------- 
----0000--------0000--------0000-1-4-0000--------00------------------ 
-1^-0000-0-0-1^-0000-0-0-1^-0000-1-4-0000-0-0-1^-00-4444444411111111- 
PM   ....        ....        ....     ....        .. 

-------------------------------------------------------------------------- 
-------------------------------------------------------------------------- 
-------------------------------------------------------------------------- 
-------------------------------------------------------------------------- 
-3/5-------------------------------3/5------------------------------------ 
---------------5-3-6------------------------------------------------------ 
-----5-4-1-0-0-------00-0--00-0-00-----5-4-1-/12-0-12-10-13-00-0--00-0-00- 

-------------------------------------------------------------------------- 
-------------------------------------------------------------------------- 
-------------------------------------------------------------------------- 
-------------------------------------------------------------------------- 
-3/5-------------------------------3/5------------------------------------ 
---------------5-3-6------------------------------------------------------ 
-----5-4-1-0-0-------00-0--00-0-00-----5-4-1-/12-0-12-10-13-00-0--00-0-00- 

------------------------------ 
------------------------------ 
------------------------------ 
------------------------------ 
------------------------------ 
-0-0-0----0-0-0----0-0--0-0-0- 
-0-0-0----0-0-0----0-0--0-0-0- 
PM. . .    . . .    . .  . . .  

---------------------------------------------------------- 
---------------------------------------------------------- 
---------------------------------------------------------- 
---------------------------------------------------------- 
---------------------------------------------------------- 
-0-0-0----0-0--0-0-0--------0-0--0-0-0---------0-0--0-0-0- 
-0-0-0----0-0--0-0-0--------0-0--0-0-0---------0-0--0-0-0- 
PM. . .    . .  . . .        . .  . . .         . .  . . .  

-10-------10-------10-------10-------10---------- 
----12-------12-------12-------12-------12----12- 
-------11-------11-------11-------11-------11---- 
------------------------------------------------- 
------------------------------------------------- 
------------------------------------------------- 
------------------------------------------------- 
  Lead and Rythm Guitar 
------------------- 
------------------- 
------------------- 
------------------- 
------------------- 
-0-0-0-------0-0-0- 
-0-0-0-------0-0-0- 
PM. . .       . . . 

-9-------9-------9-------9-------9---------- 
---11------11------11------11------11----11- 
------11------11------11------11------11---- 
-------------------------------------------- 
-------------------------------------------- 
-------------------------------------------- 
-------------------------------------------- 
  Lead and Rythm Guitar 
----------------- 
----------------- 
----------------- 
----------------- 
----------------- 
-0-0-0-----0-0-0- 
-0-0-0-----0-0-0- 
PM. . .     . . . 

-14-------14-------14-------14-------14---------- 
----15-------15-------15-------15-------15----16- 
-------16-------16-------16-------16-------16---- 
------------------------------------------------- 
------------------------------------------------- 
------------------------------------------------- 
------------------------------------------------- 
  Lead and Rythm Guitar 
------- 
------- 
------- 
------- 
------- 
-0-0-0- 
-0-0-0- 
PM. . . 

-9-------9-------9-------9-------9---------- 
---11------11------11------11------11----11- 
------11------11------11------11------11---- 
-------------------------------------------- 
-------------------------------------------- 
-------------------------------------------- 
-------------------------------------------- 
  Lead and Rythm Guitar 
------------- 
------------- 
------------- 
------------- 
------------- 
-0-0---0-0-0- 
-0-0---0-0-0- 
PM. .   . . . 

-14-------------------------------14-15-14--14-------------------14----14-15-18-19-21- 
----15-------------------14-15-17--------------15-------------15----15---------------- 
-------16-15-------15-16--------------------------16-------16------------------------- 
-------------16-17-----------------------------------16-17---------------------------- 
-------------------------------------------------------------------------------------- 
-------------------------------------------------------------------------------------- 
-------------------------------------------------------------------------------------- 
  Lead and Rythm Guitar 
------------------------------------ 
------------------------------------ 
------------------------------------ 
------------------------------------ 
------------------------------------ 
-6666666666666-222-3333333333333333- 
------------------------------------ 

-14-------------------------------14-15-14--14-------------------14----14-15-18-19-21- 
----15-------------------14-15-17--------------15-------------15----15---------------- 
-------16-15-------15-16--------------------------16-------16------------------------- 
-------------16-17-----------------------------------16-17---------------------------- 
-------------------------------------------------------------------------------------- 
-------------------------------------------------------------------------------------- 
-------------------------------------------------------------------------------------- 
  Lead and Rythm Guitar 
------------------------------------ 
------------------------------------ 
------------------------------------ 
------------------------------------ 
------------------------------------ 
-6666666666666-222-3333333333333333- 
------------------------------------ 

-14-------------------------------14-15-14--14-------------------14----14-15-18-19-21- 
----15-------------------14-15-17--------------15-------------15----15---------------- 
-------16-15-------15-16--------------------------16-------16------------------------- 
-------------16-17-----------------------------------16-17---------------------------- 
-------------------------------------------------------------------------------------- 
-------------------------------------------------------------------------------------- 
-------------------------------------------------------------------------------------- 
  Lead and Rythm Guitar 
---------------------------------------------------------- 
---------------------------------------------------------- 
---------------------------------------------------------- 
---------------------------------------------------------- 
---------------------------------------------------------- 
-000-000--0-000-0-0--0-000-0--0-000-000--0-000-0-0--0-000- 
-000-000--0-000-0-0--0-000-0--0-000-000--0-000-0-0--0-000- 
PM... ...  . ... . .  . ... .  . ... ...  . ... . .  . ... 

-14-------------------------------14-15-14--14-------------------14----14-15-18-19-21- 
----15-------------------14-15-17--------------15-------------15----15---------------- 
-------16-15-------15-16--------------------------16-------16------------------------- 
-------------16-17-----------------------------------16-17---------------------------- 
-------------------------------------------------------------------------------------- 
-------------------------------------------------------------------------------------- 
-------------------------------------------------------------------------------------- 
  Lead and Rythm Guitar 
---------------------------------------------------------- 
---------------------------------------------------------- 
---------------------------------------------------------- 
---------------------------------------------------------- 
---------------------------------------------------------- 
-000-000--0-000-0-0--0-000-0--0-000-000--0-000-0-0--0-000- 
-000-000--0-000-0-0--0-000-0--0-000-000--0-000-0-0--0-000- 
PM... ...  . ... . .  . ... .  . ... ...  . ... . .  . ... 

-14-------------------------------14-15-14--14-------------------14----14-15-18-19-21- 
----15-------------------14-15-17--------------15-------------15----15---------------- 
-------16-15-------15-16--------------------------16-------16------------------------- 
-------------16-17-----------------------------------16-17---------------------------- 
-------------------------------------------------------------------------------------- 
-------------------------------------------------------------------------------------- 
-------------------------------------------------------------------------------------- 
  Lead and Rythm Guitar 
---------------------------------------------------------- 
---------------------------------------------------------- 
---------------------------------------------------------- 
---------------------------------------------------------- 
---------------------------------------------------------- 
-000-000--0-000-0-0--0-000-0--0-000-000--0-000-0-0--0-000- 
-000-000--0-000-0-0--0-000-0--0-000-000--0-000-0-0--0-000- 
PM... ...  . ... . .  . ... .  . ... ...  . ... . .  . ... 

-14-------------------------------14-15-14--14-------------------14- 
----15-------------------14-15-17--------------15-------------15---- 
-------16-15-------15-16--------------------------16-------16------- 
-------------16-17-----------------------------------16-17---------- 
-------------------------------------------------------------------- 
-------------------------------------------------------------------- 
-------------------------------------------------------------------- 
  Lead and Rythm Guitar 
---------------------------------------- 
---------------------------------------- 
---------------------------------------- 
---------------------------------------- 
---------------------------------------- 
-000-000--0-000-0-0--0-000-0--0-000-000- 
-000-000--0-000-0-0--0-000-0--0-000-000- 
PM... ...  . ... . .  . ... .  . ... ...   

--------- 
-x-x-x-x- 
-x-x-x-x- 
-x-x-x-x- 
-x-x-x-x- 
--------- 
--------- 

--------------------------------------------------------- 
--------xx---------xx------------------------------------ 
--------xx---------xx------------------------------------ 
--------xx---------xx------------------------------------ 
--------xx---------xx--------1------------------1---4444- 
----000--------000-------000-------0-000--0-000-----4444- 
-1^-000-----1^-000----1^-000---1-0-0-000--0-000---1-4444- 
PM   ...        ...       ...       . ...  . ... 

--------------------------------------------------------- 
--------xx---------xx------------------------------------ 
--------xx---------xx------------------------------------ 
--------xx---------xx------------------------------------ 
--------xx---------xx--------1------------------1---4444- 
----000--------000-------000-------0-000--0-000-----4444- 
-1^-000-----1^-000----1^-000---1-0-0-000--0-000---1-4444- 
PM   ...        ...       ...       . ...  . ... 
		  

See also:

tabs Deep Purple - Lazy tabs Deep Purple - Highway Star tabs Deep Purple - Demon's Eye tabs Deep Purple - Smoke on the water (easy ver.) tabs Deep Purple - Perfect Strangers tabs Deep Purple - Deep Purple - Smoke On The Water
e-chords

Other versions:

tabs Death Of An Era - Big Brother
auto scroll beats size up size down change color hide chords drawings
tab show chords e-chords YouTube Clip e-chords hide all tabs e-chords go to top tab

share