Death Note

Mello Theme

Death Note

tabs

by  ALYSLIMA

save to print version add songbook text version e-mail correct tuner
chordsukulelecavacokeyboardtabbassdrumsharmonicaflute Guitar Pro
close

there isn't a video lesson for this song

chords

Mello Theme

	  		
E|----------------------------------------------------------------------------------| 
B|----------------------------------------------------------------------------------| 
G|----------------------------------------------------------------------------------| 
D|--------8----------8----------8---------8------------------8---------8---------8--| 
A|----5----------5------5----------5---------5-----------6---------6------6---------| 
D|-5-------------------------5---------5----------5---6-----------------------6-----|        


E|-----------------------------------------------------------------------------------------| 
B|-----------------------------------------------------------------------------------------| 
G|-----------------------------------------------------------------------------------------| 
D|---------5----------5---------5---------5-----------------4---------4-----------3--------| 
A|-----3----------3------3---------3---------3----------2---------2-----2-----------3------| 
D|-3-------------------------3---------3---------3----2-----------------------1---------1--| 


E|-----------------------------------------------------------------------------| 
B|-----------------------------------------------------------------------------| 
G|-----------------------------------------------------------------------------| 
D|-3---------------------------------------------------------------------------| 
A|----3------------------------------------------------------------------------| 
D|-------1---------------------------------------------------------------------| 

E|----------------------------------------------------------------------------------| 
B|----------------------------------------------------------------------------------| 
G|----------------------------------------------------------------------------------| 
D|--------8----------8----------8---------8------------------8---------8---------8--| 
A|----5----------5------5----------5---------5-----------6---------6------6---------| 
D|-5-------------------------5---------5----------5---6-----------------------6-----|        


E|-----------------------------------------------------------------------------------------| 
B|-----------------------------------------------------------------------------------------| 
G|-----------------------------------------------------------------------------------------| 
D|---------5----------5---------5---------5-----------------4---------4-----------3--------| 
A|-----3----------3------3---------3---------3----------2---------2-----2-----------3------| 
D|-3-------------------------3---------3---------3----2-----------------------1---------1--| 


E|-----------------------------------------------------------------------------| 
B|-----------------------------------------------------------------------------| 
G|-----------------------------------------------------------------------------| 
D|-3---------------------------------------------------------------------------| 
A|----3------------------------------------------------------------------------| 
D|-------1---------------------------------------------------------------------| 

E|----------------------------------------------------------------------------------| 
B|----------------------------------------------------------------------------------| 
G|----------------------------------------------------------------------------------| 
D|--------9----------9----------9---------9------------------9---------9---------9--| 
A|----5----------5------5----------5---------5-----------6---------6------6---------| 
D|-5-------------------------5---------5----------5--/6-----------------------6-----|        X2 


E|-----------------------------------------------------------------------------------| 
B|-----------------------------------------------------------------------------------| 
G|----------------8-------------------8---------------------8------------------------| 
D|---------8-------------------8---------------------8------------------------------| 
A|-----5-------------------6---------------------5-----------------6-----------------| 
D|-5-------------------6---------------------5-----------------6---------------------| 


E|-----------------------------------------------------------------| 
B|-----------------------------------------------------------------| 
G|-----------------------------------------------------------------| 
D|--8-8---7-7---8---8-8---7-7---8---8-8---7-7---8---8-8---7-7---8--| 
A|--5-5---5-5---5---5-5---5-5---5---5-5---5-5---5---5-5---5-5---5--| 
D|--5-5---5-5---5---5-5---5-5---5---5-5---5-5---5---5-5---5-5---5--|       


E|-----------------------------------------------------------------------------| 
B|-----------------------------------------------------------------------------| 
G|-----------------------------------------------------------------------------| 
D|--8-8----7-7----8---7---8--10----8-8----7-7----8---7---8--10-----------------| 
A|--5-5----5-5----5---5---5---5----5-5----5-5----5---5---5---5-----------------| 
D|--5-5----5-5----5---5---5---5----5-5----5-5----5---5---5---5-----------------| 


E|-----------------------------------------------------------------------------| 
B|-----------------------------------------------------------------------------| 
G|-----------------------------------------------------------------------------| 
D|--8-8----7-7----8---7---8--10----5-5----5-5----4---4---4---3-----------------| 
A|--6-6----6-6----6---6---6---6----3-3----3-3----2---2---2---1-----------------| 
D|--6-6----6-6----6---6---6---6----3-3----3-3----2---2---2---1-----------------| 


E|-----------------------------------------------------------------------------| 
B|-----------------------------------------------------------------------------| 
G|-----------------------------------------------------------------------------| 
D|--8-8----7-7----8---7---8--10----8-8----7-7----8---7---8--10-----------------| 
A|--5-5----5-5----5---5---5---5----5-5----5-5----5---5---5---5-----------------| 
D|--5-5----5-5----5---5---5---5----5-5----5-5----5---5---5---5-----------------| 


E|-----------------------------------------------------------------------------| 
B|-----------------------------------------------------------------------------| 
G|-----------------------------------------------------------------------------| 
D|--8-8----7-7----8---7---8--10----5-5----5-5----4---4---4---3-----------------| 
A|--6-6----6-6----6---6---6---6----3-3----3-3----2---2---2---1-----------------| 
D|--6-6----6-6----6---6---6---6----3-3----3-3----2---2---2---1-----------------| 


E|-----------------------------------------------------------------------------| 
B|-----------------------------------------------------------------------------| 
G|-----------------------------------------------------------------------------| 
D|--8-8----7-7----8---7---8--10----8-8----7-7----8---7---8--10-----------------| 
A|--5-5----5-5----5---5---5---5----5-5----5-5----5---5---5---5-----------------| 
D|--5-5----5-5----5---5---5---5----5-5----5-5----5---5---5---5-----------------| 


E|-----------------------------------------------------------------------------| 
B|-----------------------------------------------------------------------------| 
G|-----------------------------------------------------------------------------| 
D|--8-8----7-7----8---7---8--10----5-5----5-5----4---4---4---3-----------------| 
A|--6-6----6-6----6---6---6---6----3-3----3-3----2---2---2---1-----------------| 
D|--6-6----6-6----6---6---6---6----3-3----3-3----2---2---2---1-----------------| 


E|-----------------------------------------------------------------------------| 
B|-----------------------------------------------------------------------------| 
G|-----------------------------------------------------------------------------| 
D|--8-8----7-7----8---7---8--10----8-8----7-7----8---7---8--10-----------------| 
A|--5-5----5-5----5---5---5---5----5-5----5-5----5---5---5---5-----------------| 
D|--5-5----5-5----5---5---5---5----5-5----5-5----5---5---5---5-----------------| 


E|-----------------------------------------------------------------------------| 
B|-----------------------------------------------------------------------------| 
G|-----------------------------------------------------------------------------| 
D|--8-8----7-7----8---7---8--10----5-5----5-5----4---4---4---3-----------------| 
A|--6-6----6-6----6---6---6---6----3-3----3-3----2---2---2---1-----------------| 
D|--6-6----6-6----6---6---6---6----3-3----3-3----2---2---2---1-----------------| 


E|-----------------------------------------------------------------------------| 
B|-----------------------------------------------------------------------------| 
G|-----------------------------------------------------------------------------| 
D|--8-8----7-7----8---7---8--10----8-8----7-7----8---7---8--10-----------------| 
A|--5-5----5-5----5---5---5---5----5-5----5-5----5---5---5---5-----------------| 
D|--5-5----5-5----5---5---5---5----5-5----5-5----5---5---5---5-----------------| 


E|-----------------------------------------------------------------------------| 
B|-----------------------------------------------------------------------------| 
G|-----------------------------------------------------------------------------| 
D|--8-8----7-7----8---7---8--10----5-5----5-5----4---4---4---3-----------------| 
A|--6-6----6-6----6---6---6---6----3-3----3-3----2---2---2---1-----------------| 
D|--6-6----6-6----6---6---6---6----3-3----3-3----2---2---2---1-----------------| 


E|----------------------------------------------------------------------------------| 
B|----------------------------------------------------------------------------------| 
G|----------------------------------------------------------------------------------| 
D|--------9----------9----------9---------9------------------9---------9---------9--| 
A|----5----------5------5----------5---------5-----------6---------6------6---------| 
D|-5-------------------------5---------5----------5---6-----------------------6-----|        


E|-----------------------------------------------------------------------------------------| 
B|-----------------------------------------------------------------------------------------| 
G|-----------------------------------------------------------------------------------------| 
D|---------5----------5---------5---------5-----------------4---------4-----------3--------| 
A|-----3----------3------3---------3---------3----------2---------2-----2-----------3------| 
D|-3-------------------------3---------3---------3----2-----------------------1---------1--| 


E|-----------------------------------------------------------------------------| 
B|-----------------------------------------------------------------------------| 
G|-----------------------------------------------------------------------------| 
D|-3---------------------------------------------------------------------------| 
A|----3------------------------------------------------------------------------| 
D|-------1---------------------------------------------------------------------| 
		  

See also:

tabs Does - Donten tabs Does - Guren tabs Luna Sea - Jesus tabs Death Note - Light's Theme tabs Flow - Answer tabs Elfen Lied - Lilium
e-chords

Other versions:

tabs Death Note - Mello Theme
auto scroll beats size up size down change color hide chords drawings
tab show chords e-chords YouTube Clip e-chords hide all tabs e-chords go to top tab

share