Death Note

L Theme

Death Note

tabs Expert expert

by  UBIRBOMFIM

save to print version add songbook text version e-mail correct tuner
chordsukulelecavacokeyboardtabbassdrumsharmonicaflute Guitar Pro
close

there isn't a video lesson for this song

chords

L Theme

	  		(intro) 

--3--0--5--0--2--3--0--7--5--3--2--0|-----3--0--5--0--2--3--0--7--5--3--2|E 
------------------------------------|--3---------------------------------|B 
------------------------------------|------------------------------------|G 
------------------------------------|------------------------------------|D 
------------------------------------|------------------------------------|A 
------------------------------------|------------------------------------|E 

--0------0--3-0-5-0-2-3-0-7-5-|--3-2-0---3-0-5-0-2-3-0-7----|---------5--3--2--0-----0----| 
----3-------------------------|--------3--------------------|---------------------3-------| 
------------------------------|-----------------------------|-----------------------------| 
------------------------------|-----------------------------|-----------------------------| 
------------------------------|-----------------------------|-----------------------------| 
------------------------------|-----------------------------|-----------------------------| 

(Refrão) 
---3--3-----3--3----2-|---3--3--3--3----5--5-|---3--3-----3--3----2-|---3--3--3--3--2------| 
---5--5-----5--5----5-|---5--5--5--5----5--5-|---5--5-----5--5----5-|---5--5--5--5--5------| 
---4--4-----4--4----4-|---4--4--4--4----4--4-|---4--4-----4--4----4-|---4--4--4--4--4------| 
----------------------|----------------------|----------------------|----------------------| 
----------------------|----------------------|----------------------|----------------------| 
----------------------|----------------------|----------------------|----------------------| 

(tema) 
-1-----3-----0-1-----5|------3--1--0---------|----1-----3-----0--1-5|-----3--1--0----------| 
----3-----3-------3---|---------------3--1--3|-------3-----3------3-|--------------3--1--3-| 
----------------------|----------------------|----------------------|----------------------| 
----------------------|----------------------|----------------------|----------------------| 
----------------------|----------------------|----------------------|----------------------| 
----------------------|----------------------|----------------------|----------------------| 

(Refrão) 
---3--3-----3--3----2-|---3--3--3--3----5--5-|---3--3-----3--3----2-|---3--3--3--3--2------| 
---5--5-----5--5----5-|---5--5--5--5----5--5-|---5--5-----5--5----5-|---5--5--5--5--5------| 
---4--4-----4--4----4-|---4--4--4--4----4--4-|---4--4-----4--4----4-|---4--4--4--4--4------| 
----------------------|----------------------|----------------------|----------------------| 
----------------------|----------------------|----------------------|----------------------| 
----------------------|----------------------|----------------------|----------------------| 

(final) 
----------------------|----------------------|----------------------|----------------------| 
--1--1----1--1----0---|--1--1--1--1----3--3--|--1--1----1--1----0---|----------1-1-1-1-0---| 
--2--2----2--2----2---|--2--2--2--2----2--2--|--2--2----2--2----2---|----------2-2-2-2-2---| 
----------------------|----------------------|----------------------|----------------------| 
----------------------|----------------------|----------------------|----------------------| 
----------------------|----------------------|----------------------|----------------------| 
		  

See also:

tabs Does - Donten tabs Does - Guren tabs Luna Sea - Jesus tabs Death Note - Light's Theme tabs Flow - Answer tabs Elfen Lied - Lilium
e-chords

Other versions:

tabs Death Note - L Theme
auto scroll beats size up size down change color hide chords drawings
tab show chords e-chords YouTube Clip e-chords hide all tabs e-chords go to top tab

share