Death Note

Light's Theme

Death Note

tabs Beginner beginner

by  MARCNAGEL

save to print version add songbook text version e-mail correct tuner
chordsukulelecavacokeyboardtabbassdrumsharmonicaflute Guitar Pro
close

there isn't a video lesson for this song

chords

Light's Theme

	  		Guitarra Base: 
 
  Am 
E|----------------5-|-------------------| 
B|---5------6-------|---5------6-----8--| 
G|-----7------7-----|-----7------7------|   (2x) 
D|-------7------7---|-------7------7----| 
A|-5----------------|-5-----------------| 
E|------------------|-------------------| 
 

 
  Am7 
E|----------------5-|-------------------| 
B|---5------6-------|---5------6-----8--| 
G|-----5------5-----|-----5------5------| 
D|-------7------7---|-------7------7----| 
A|------------------|-------------------| 
E|-5----------------|-5-----------------| 
 
 
  Am7 
E|----------------5-|-------------------| 
B|---5------6-------|---5------6-5------| 
G|-----5------5-----|-----5--------5----| 
D|-------7------7---|-------7----------| 
A|------------------|-------------------| 
E|-5----------------|-5-----------------| 
 

Guitarra Solo: 
 
E|--10---10-----------------10--10-----------10-10-9------9----------| 
B|-------------------------------------------------------------------| 
G|-------------------------------------------------------------------|   (2x) 
D|-------------------------------------------------------------------| 
A|-------------------------------------------------------------------| 
E|-------------------------------------------------------------------| 
 

E|--10-12-13---12-8----10-12-13---15---12----------------------------| 
B|-------------------------------------------------------------------| 
G|-------------------------------------------------------------------| 
D|-------------------------------------------------------------------| 
A|-------------------------------------------------------------------| 
E|-------------------------------------------------------------------| 
		  

Full key step upFull key step up
Half key step upHalf key step up
Half key step downHalf key step down
Full key step downFull key step down
hide glossary

See also:

tabs Does - Donten tabs Does - Guren tabs Luna Sea - Jesus tabs Death Note - Light's Theme tabs Flow - Answer tabs Elfen Lied - Lilium
e-chords

Other versions:

tabs Death Note - Light's Theme
auto scroll beats size up size down change color hide chords drawings
tab show chords e-chords YouTube Clip e-chords hide all tabs e-chords go to top tab

share