Death Grips

Giving Bad People Good Ideas

Death Grips

tabs

by  HUGO_RODRIGUES

save to print version add songbook text version e-mail correct tuner
chordsukulelecavacokeyboardtabbassdrumsharmonicaflute Guitar Pro
close

there isn't a video lesson for this song

chords

Giving Bad People Good Ideas

	  		
E|----------------------------------| 
G|----------------------------------| 
B|----------------------------------| 
D|-3-3-3-3-3-3-3-3-3-3-3-3--4-4-4-4-|  over and over 
A|-3-3-3-3-3-3-3-3-3-3-3-3--4-4-4-4-| 
E|-1-1-1-1-1-1-1-1-1-1-1-1--2-2-2-2-| 


E|-------------------| 
B|-----------12--11--| 
G|--------10---10----| 
D|-------------------| 
A|---11-14-----------| 
E|-13----------------| 
		  

See also:

tabs Deep Purple - Highway Star tabs Deep Purple - Smoke On The Water (Easy Intro) tabs Deep Purple - Space Truckin tabs Deep Purple - Rat Bat Blues tabs Deep Purple - Smoke On Water (ver. 2) tabs Deep Purple - Lazy
e-chords

Other versions:

tabs Death Grips - Giving Bad People Good Ideas
auto scroll beats size up size down change color hide chords drawings
tab show chords e-chords YouTube Clip e-chords hide all tabs e-chords go to top tab

share