Darkness

Can't Believe It's Not Love

Darkness

tabs

by  ALEFFEDERICO

save to print version add songbook text version e-mail correct tuner
chordsukulelecavacokeyboardtabbassdrumsharmonicaflute Guitar Pro
close

there isn't a video lesson for this song

chords

Can't Believe It's Not Love

	  		

Intro (Dan - Electric Guitar): 

 

e|--------10----10-----------10----10-----------------| 
B|--------10----10-----------10----10-----------------| 
G|----------------------------------------------------| 
D|--11h12----12-----12-11h12----12-----12-------------| 
A|----------------------------------------------------| 
E|----------------------------------------------------| 

Acoustic joins (strumming chords): 

e|--2--------------------------------------------------------3-----------| 
B|--3------------------3------------------2------------------3-----------| 
G|--2------------------2------------------2------------------0-----------| 
D|--0------------------0------------------2------------------0-----------| 
A|--0------------------2------------------0------------------2-----------| 
E|-----------------------------------------------------------3-----------| 

Verse (Justin - Acoustic): 

    Baby,        It's been fun     But I am disgusted at what I have become 

e|--2-2-3--3-3----2-2-3--3-3-------2-2---------3------------------------| 
B|--3-3-3--3-3----3-3-3--3-3-------3-3---2-2---3------------------------| 
G|--2-2-2--2-2----2-2-2--2-2-------2-2---2-2---0------------------------| 
D|--0-0-0--0-0----0-0-0--0-0-------0-0---2-2---0------------------------| 
A|--0-0-0--0-0----0-0-0--0-0-------0-0---0-0---2------------------------| 
E|---------------------------------------------3------------------------| 
Bridge (Electric): 

  ...in me wiping out the signs of love 

e|--------0------------------------------------------------------| 
B|--------0------------------------------------------------------| 
G|--7\----1------------------------2-----2-----------------------| 
D|--7\----2---------------4--------2-----2----0------------------| 2X 
A|--5\----2---------------4--------0-------0h2-------------------| 
E|--------0---------------2--------------------------------------| 

(Idk if Dan actually plays the open G string VhereV, but it sounds good) 

e|--------0-----------------------------------------------------------| 
B|--------0-----------------------------------------------------------| 
G|--7\----1------------------------2-------0-0-0-0--------------------| 
D|--7\----2------------------------2-------5-4-2-0--------------------| 
A|--5\----2-----------5----5-------0----------------------------------| 
E|--------0---------2----3--------------------------------------------| 

Chorus (Acoustic): 

    Can't believe it's not love we're makin'  I'm startled, I'm shaken 

e|--2----------------------------------------0--------------3-----------| 
B|--3----------------------3-----------------0--------------3-----------| 
G|--2----------------------2-----------------1--------------0-----------| 
D|--0----------------------0-----------------2--------------0-----------| 
A|--0----------------------2-----------------2--------------2-----------| 
E|-------------------------------------------0--------------3-----------| 

Chorus (Electric): 

e|--5---5----------------------0-2-----------0-2-0------------2-0------| 
B|--3-3---3----------------3-3---------------0-----3--------------3----| 
G|--2----------------------2-----------------1--------------3----------| 
D|--0----------------------0-------------------------------------------| 
A|--0----------------------2-------------------------------------------| 
E|---------------------------------------------------------------------| 

Chorus Outro (Electric): 

(Acoustic strums chords) 

    Soft to the touch, Sweet on the tongue, I think 
    E           F#     G            A 
e|---------------------------------------------------| 
B|--12----------14-----15-----------17---------------| 
G|--13----------15-----16-----------18---------------| 
D|--14----------16-----17-----------19---------------| 
A|---------------------------------------------------| 
E|---------------------------------------------------| 

    I'm                Gonna need a second opinion 

e|--------------------------------------------------------| 
B|--12----------14-----15-----------15--------------------| 
G|--13----------15-----16-----------16-----2-2----0-0-0-0-| 
D|--14----------16-----17-----------17-----2-2----5-4-2-0-| 
A|-----------------------------------------0-0------------| 
E|--------------------------------------------------------| 
Acoustic Solo: 

e|--------------------------------------------------------------------| 
B|--------------------------------------------------------------------| 
G|--14~~--12-14-14/15----17-15h17p15s14----12-14-14-------------------| 
D|--------------------------------------------------------------------| 
A|-------------------------------------------------15-15--------------| 
E|--------------------------------------------------------------------| 


e|--------------------------------------8-----------------------------| 
B|-------------------------------8-8h10-------------------------------| 
G|--7-9-10r9p7~~--7/9\5------7/9--------------------------------------| 
D|--------------------------------------------------------------------| 
A|--------------------------------------------------------------------| 
E|--------------------------------------------------------------------| 

Electric Solo: 

      Hold bend...                                release 
e|--------------------------------------------------------------------| 
B|--17b19-19-191919-191919-191919-191919-191919-19-19r17~~--17-19-----| 
G|--------------------------------------------------------------------| 
D|--------------------------------------------------------------------| 
A|--------------------------------------------------------------------| 
E|--------------------------------------------------------------------| 

e|--14h15-14-12-14-----------------------------------------------| 
B|-----------------------------------------------12---12---------| 
G|-----------------14~~--14b16~-16r14----------------------------| 
D|------------------------------------12h14--9/12---12-----------| 
A|---------------------------------------------------------------| 
E|---------------------------------------------------------------| 

e|------17-17b19~~--17b19-17-15-14-15-17------------------------------| 
B|---------------------------------------17b19r17p15-17b19-17~~-------| 
G|--/16---------------------------------------------------------------| 
D|--------------------------------------------------------------------| 
A|--------------------------------------------------------------------| 
E|--------------------------------------------------------------------| 

e|--------------------------------------------------------------------| 
B|--15h17p15/14h15p14----14-15-17-15h17p15p14h15p14/12/11----15-------| 
G|--------------------16----------------------------------10----15----| 
D|--------------------------------------------------------------------| 
A|--------------------------------------------------------------------| 
E|--------------------------------------------------------------------| 

e|--18-18-22-22-------------------------------------------------------| 
B|--------------22-22-20-20-19h20p19----19----------------------------| 
G|-----------------------------------21----19----19b20r19~~~~---------| 
D|--------------------------------------------19----------------------| 
A|--------------------------------------------------------------------| 
E|--------------------------------------------------------------------| 
		  

Full key step upFull key step up
Half key step upHalf key step up
Half key step downHalf key step down
Full key step downFull key step down
hide glossary

See also:

tabs Eric Clapton - Wonderful Tonight tabs Eric Clapton - Hey, Hey tabs The Beatles - Yesterday tabs Eagles - Hotel California tabs Deep Purple - Highway Star tabs The Beatles - Blackbird
e-chords

Other versions:

tabs Darkness - Can't Believe It's Not Love
auto scroll beats size up size down change color hide chords drawings
tab show chords e-chords YouTube Clip e-chords hide all tabs e-chords go to top tab

share