Dance of Days

Por Onde Estive

Dance of Days

tabs

by  EDSOOLIVEIRA

save to print version add songbook text version e-mail correct tuner
chordsukulelecavacokeyboardtabbassdrumsharmonicaflute Guitar Pro
close

there isn't a video lesson for this song

chords

Por Onde Estive

(Nenê Altro)

	  		e|---------------------------------------------------| 
B|---------------------------------------------------| 
G|---8-8-8-10-10-8----8-8-10-10-8---8-8-10-10-8------| 
D|---8-------------8--------------8-------------8----| 
A|---------------------------------------------------| 
E|---------------------------------------------------| 

as vezes eu... 

e|--------------------------------------------------------------| 
B|--------------------------------------------------------------| 
G|-----8-8-10-10-8----8-8-10-10-8-----------------8-8-10-10-8---| 
D|---8-------------8--------------10-10-10-10-8-8-------------8-| 
A|--------------------------------------------------------------| 
E|--------------------------------------------------------------| 

o mundo não quer 

e|--------------------------------------------------| 
B|--------------------------------------------------| 
G|---8----------8----------8------------------------| 
D|---8----------8----------8------------------------| 
A|--------------------------------------------------| 
E|--------------------------------------------------| 

dizer que sim... 

e|---------------------------------------------------------------| 
B|---------------------------------------------------------------| 
G|-----8-8-10-10-8----8-8-10-10-8-----------------8-8-10-10-8----| 
D|---8-------------8--------------10-10-10-10-8-8-------------8--| 
A|---------------------------------------------------------------| 
E|---------------------------------------------------------------| 

não nos deixam dançar 

e|---------------------------------------------------| 
B|---------------------------------------------------| 
G|---8--8--8--8--8--8----------8---------------------| 
D|---8--8--8--8--8--8----------8---------------------| 
A|---------------------------------------------------| 
E|---------------------------------------------------| 

onde estás?... 

e|--------------------------------------------------------------| 
B|--------------------------------------------------------------| 
G|-----8-8-10-10-8----8-8-10-10-8-----------------8-8-10-10-8---| 
D|---8-------------8--------------10-10-10-10-8-8-------------8-| 
A|--------------------------------------------------------------| 
E|--------------------------------------------------------------| 
		  

See also:

tabs Mukeka di Rato - Maconha tabs Maria Cecília e Rodolfo - Você De Volta tabs Fistt - Medo tabs Fenix TX - Threesome tabs Dance of Days - Quando o Veneno Sobe A lança tabs Maria Cecília e Rodolfo - Você De Volta Ao Vivo
e-chords

Other versions:

tabs Dance of Days - Por Onde Estive
auto scroll beats size up size down change color hide chords drawings
tab show chords e-chords YouTube Clip e-chords hide all tabs e-chords go to top tab

share