Dan Auerbach

Guitar Shopping With Dan

Dan Auerbach

tabs

by  ALYSLIMA

save to print version add songbook text version e-mail correct tuner
chordsukulelecavacokeyboardtabbassdrumsharmonicaflute Guitar Pro
close

there isn't a video lesson for this song

chords

Guitar Shopping With Dan

	  		

e|3--3--------p0------|--0-----------------|-------3---------3--|----------3---------| 
B|0----------------3--|-------------0----0-|------------0-------|------------0-------| 
G|0-------------------|--------3---------0-|--------------------|--------------------| 
D|0----0---------0----|-----0---------0----|--0--0---------0----|-----0---------0----| 
A|2-------------------|--------------------|--------------------|--------------------| 
E|3---------3---------|3---------3---------|3---------3---------|3---------3---------| 


e|--------------------|--------------------|------------3-----3-|--------------------| 
B|1--1-----------1----|---1----------------|------------------0-|-----------0--------| 
G|-------3b------0----|--------0h3-3-----0-|------------------0-|--------------------| 
D|-----2---------2----|-----2---------2----|-----0---------0----|-----0---------0----| 
A|3---------3---------|3---------3---------|--------------------|--------------------| 
E|--------------------|--------------------|3---------3---------|3---------3---------| 



e|--------------------|--------------------|------------3-----3-|--------------------| 
B|1--1-----------1----|---1----------------|------------------0-|--------------------| 
G|-------3b------0----|--------0h3-3-----0-|------------------0-|-----------0--------| 
D|-----2---------2----|-----2---------2----|-----0---------0----|-----0--------3--4--| 
A|3---------3---------|3---------3---------|--------------------|--------------------| 
E|--------------------|--------------------|3---------3---------|3---------3---------| 



e|-----2--------------|--------------------|-------------3------|3------3------------| 
B|-----3-------3------|1-------------------|--------------------|--------------------| 
G|-----2--------------|0-----------3b----0-|--------------------|--------------------| 
D|0---------0----0----|-----2--------------|-----0---------0----|-----0---------0----| 
A|--------------------|3---------3---------|--------------------|--------------------| 
E|--------------------|--------------------|3---------3---------|3---------3---------| 



e|3--3---1------p0----|---3----1-----p0----|---3------5--3------|3-------1----0------| 
B|--------------------|--------------------|--------------------|--------------------| 
G|--------------------|--------------------|--------------------|--------------------| 
D|-----0---------0----|-----0---------0----|-----0---------0----|-----0---------0----| 
A|--------------------|--------------------|--------------------|--------------------| 
E|3---------3---------|3---------3---------|3---------5---------|3---------3---------| 



e|--------------------|--------------------|-------------3------|--------------------| 
B|1--------------1----|---1----------------|-----0--------------|--------------------| 
G|-------3b------0----|---0----0h3-3-------|-----0--------------|-------0----0----0--| 
D|-----2---------2----|-----2---------2--0-|-----0---------0----|0h2--0---------0----| 
A|3---------3---------|3---------3---------|--------------------|--------------------| 
E|--------------------|--------------------|3---------3---------|----------3---------| 


e|-----3--------------|---0----------------|-----3-----------3--|-------3-------x----| 
B|-----2-------0----1-|---1----------------|--------------------|---------------x----| 
G|-----3-------0----0-|---0----0h3--3----0-|------------0-------|--0--------0---x----| 
D|0----0----0----0--2-|-----2---------2----|-----0---------0----|-----0---------x----| 
A|--------------------|3---------3---------|--------------------|---------------x----| 
E|--------------------|--------------------|3---------3---------|3--------3-----x----| 
		  

See also:

tabs Deep Purple - Strange kind of woman tabs Deep Purple - Smoke On The Water tabs Deep Purple - Time To Kill tabs Albert Hammond Jr - Gfc tabs Deep Purple - Soldier Of Fortune tabs Ira! - Nucleo De Base
e-chords

Other versions:

tabs Dan Auerbach - Guitar Shopping With Dan
auto scroll beats size up size down change color hide chords drawings
tab show chords e-chords YouTube Clip e-chords hide all tabs e-chords go to top tab

share