Courtney Barnett

Nobody Really Cares If You Dont Go To The Party

Courtney Barnett

tabs

by  VICTBORGES

save to print version add songbook text version e-mail correct tuner
chordsukulelecavacokeyboardtabbassdrumsharmonicaflute Guitar Pro
close

there isn't a video lesson for this song

chords

Nobody Really Cares If You Dont Go To The Party

	  		Verse : 

Guitar 1: 
e|--0-------0---0---0---0---0---0-------0---0---0---0---0---0---0------------| 
B|--0-------0---0---2---3---0---0-------0---0---0---2---3---2---0------------| 
G|--1-------1---0---2---2---0---1-------1---1---0---2---2---2---0------------| 
D|--2-------2---0---2---2---0---2-------2---2---0---2---2---2---0------------| 
A|--2-------2---0---0---0---0---2-------2---2---0---0---0---0---0------------| 
E|--0-------0---0-----------0---0-------0---0---0---------------0------------| 

Guitar 2: 
e|--------------0-------0-----------------------0-------0--------------------| 
B|--5-\-----0-------2-------3-/-5-\---------0-------2-------3---5------------| 
G|---------------------------------------------------------------------------| 
D|---------------------------------------------------------------------------| 
A|---------------------------------------------------------------------------| 
E|---------------------------------------------------------------------------| 



Guitar 1: 
e|--0-------0---0---0---0---0---0-------0---0---0---0---0---0---0------------| 
B|--0-------0---0---2---3---0---0-------0---0---0---2---3---2---0------------| 
G|--1-------1---0---2---2---0---1-------1---1---0---2---2---2---0------------| 
D|--2-------2---0---2---2---0---2-------2---2---0---2---2---2---0------------| 
A|--2-------2---0---0---0---0---2-------2---2---0---0---0---0---0------------| 
E|--0-------0---0-----------0---0-------0---0---0---------------0------------| 

Guitar 2: 
e|--------------0-------0-------------------0--------------------------------| 
B|----\-----0-------2-------3---2-------0------------------------------------| 
G|------------------------------------------------------3---3b4r3b4r3--------| 
D|---------------------------------------------------------------------------| 
A|---------------------------------------------------------------------------| 
E|---------------------------------------------------------------------------| 





Chorus: 

Guitar 1: 
e|--0-------0---0---0---0---0---0-------0---0---0---0---0---0---0------------| 
B|--0-------0---0---2---2---0---0-------0---0---0---2---3---2---0------------| 
G|--1-------1---0---2---2---0---1-------1---1---0---2---2---2---0------------| 
D|--2-------2---0---2---2---0---2-------2---2---0---2---2---2---0------------| 
A|--2-------2---0---0---0---0---2-------2---2---0---0---0---0---0------------| 
E|--0-------0---0-----------0---0-------0---0---0---------------0------------| 

Guitar 2: 
e|---------------------------------------------------------------------------| 
B|--12--12--12--12--12--12--12--12--12--11--12--12--12--12--12--12-----------| 
G|--13--13--13--13--14--14--14--13--13\-12/-13--13--14--14--14--14-----------| 
D|---------------------------------------------------------------------------| 
A|---------------------------------------------------------------------------| 
E|---------------------------------------------------------------------------| 





Bridge pt1: 

Guitar 1: 
e|--0---0---0---0---0---0---0---0---2---2---2---2---2---2---2---2------------| 
B|--0---0---0---0---0---0---0---0---3---3---3---3---3---3---3---3------------| 
G|--1---1---1---1---1---1---1---1---2---2---2---2---2---2---2---2------------| 
D|--2---2---2---2---2---2---2---2---0---0---0---0---0---0---0---0------------| 
A|--2---2---2---2---2---2---2---2--------------------------------------------| 
E|--0---0---0---0---0---0---0---0--------------------------------------------| 

Guitar 2: 
e|--------------0-------0-----------------------0-------0--------------------| 
B|--5-\-----0-------2-------3-/-5-\---------0-------2-------3---5------------| 
G|---------------------------------------------------------------------------| 
D|---------------------------------------------------------------------------| 
A|---------------------------------------------------------------------------| 
E|---------------------------------------------------------------------------| 



Guitar 1: 
e|--0---0---0---0---0---0---0---0---0---0---0---0---0---0---0---0------------| 
B|--4---4---4---4---4---4---4---4---2---2---2---2---2---2---2---2------------| 
G|--4---4---4---4---4---4---4---4---2---2---2---2---2---2---2---2------------| 
D|--4---4---4---4---4---4---4---4---2---2---2---2---2---2---2---2------------| 
A|--0---0---0---0---0---0---0---0---0---0---0---0---0---0---0---0------------| 
E|---------------------------------------------------------------------------| 

Guitar 2: 
e|--------------0-------0-------------------0--------------------------------| 
B|----\-----0-------2-------3---2-------0------------------------------------| 
G|------------------------------------------------------3---3b4r3b4r3--------| 
D|---------------------------------------------------------------------------| 
A|---------------------------------------------------------------------------| 
E|---------------------------------------------------------------------------| 



Guitar 1: 
e|--0---0---0---0---0---0---0---0---2---2---2---2---2---2---2---2------------| 
B|--0---0---0---0---0---0---0---0---3---3---3---3---3---3---3---3------------| 
G|--1---1---1---1---1---1---1---1---2---2---2---2---2---2---2---2------------| 
D|--2---2---2---2---2---2---2---2---0---0---0---0---0---0---0---0------------| 
A|--2---2---2---2---2---2---2---2--------------------------------------------| 
E|--0---0---0---0---0---0---0---0--------------------------------------------| 

Guitar 2: 
e|--------------0-------0-----------------------0-------0--------------------| 
B|--5-\-----0-------2-------3-/-5-\---------0-------2-------3---5------------| 
G|---------------------------------------------------------------------------| 
D|---------------------------------------------------------------------------| 
A|---------------------------------------------------------------------------| 
E|---------------------------------------------------------------------------| 



Guitar 1: 
e|--0---0---0---0---0---0---0---0---0---0---0---0----------------------------| 
B|--2---2---2---2---2---2---2---2---4---4---4---4----------------------------| 
G|--2---2---2---2---2---2---2---2---4---4---4---4----------------------------| 
D|--2---2---2---2---2---2---2---2---4---4---4---4----------------------------| 
A|--0---0---0---0---0---0---0---0---0---0---0---0----------------------------| 
E|---------------------------------------------------------------------------| 

Guitar 2: 
e|--------------0-------0-------0---0---0---0---0----------------------------| 
B|----\-----0-------2-------3-------4---4---4---4----------------------------| 
G|---------------------------------------------------------------------------| 
D|---------------------------------------------------------------------------| 
A|---------------------------------------------------------------------------| 
E|---------------------------------------------------------------------------| 



Bridge pt2: 

Guitar1: 
e|--2-------2---0-----------0---2-------2---2---0---------------0------------| 
B|--2-------2---0---4---4---0---2-------2---2---0---4---4---4---0------------| 
G|--3-------3---0---4---4---0---3-------3---3---0---4---4---4---0------------| 
D|--4-------4---0---4---4---0---4-------4---4---0---4---4---4---0------------| 
A|--4-------4---0---2---2---0---4-------4---4---0---2---2---2---0------------| 
E|--2-------2---0-----------0---2-------2---2---0---------------0------------| 

Guitar 2: (double picking) 
e|--14--14--14--14--14--14--14--14--14--14--14--14--17b18--------------------| 
B|----------------------------------------------------------14--14-----------| 
G|---------------------------------------------------------------------------| 
D|---------------------------------------------------------------------------| 
A|---------------------------------------------------------------------------| 
E|---------------------------------------------------------------------------| 



Guitar 1: 
e|--2-------2---0-----------0---2-------2---2---0---------------0------------| 
B|--2-------2---0---4---4---0---2-------2---2---0---4---4---4---0------------| 
G|--3-------3---0---4---4---0---3-------3---3---0---4---4---4---0------------| 
D|--4-------4---0---4---4---0---4-------4---4---0---4---4---4---0------------| 
A|--4-------4---0---2---2---0---4-------4---4---0---2---2---2---0------------| 
E|--2-------2---0-----------0---2-------2---2---0---------------0------------| 

Guitar 2: 
e|---------------------------------------------------------------------------| 
B|--14--14--14--14--17--17--17--17--17--16--16--16--14\----------------------| 
G|---------------------------------------------------------------------------| 
D|---------------------------------------------------------------------------| 
A|---------------------------------------------------------------------------| 
E|---------------------------------------------------------------------------| 



Guitar 1: 
e|--2-------2---0-----------0---2-------2---2---0---------------0------------| 
B|--2-------2---0---4---4---0---2-------2---2---0---4---4---4---0------------| 
G|--3-------3---0---4---4---0---3-------3---3---0---4---4---4---0------------| 
D|--4-------4---0---4---4---0---4-------4---4---0---4---4---4---0------------| 
A|--4-------4---0---2---2---0---4-------4---4---0---2---2---2---0------------| 
E|--2-------2---0-----------0---2-------2---2---0---------------0------------| 

Guitar 2: 
e|--14--14--14--14--14--14--14--14--14--14--14--14--17b18---14--14-----------| 
B|---------------------------------------------------------------------------| 
G|---------------------------------------------------------------------------| 
D|---------------------------------------------------------------------------| 
A|---------------------------------------------------------------------------| 
E|---------------------------------------------------------------------------| 



Guitar 1: 
e|--2-------2---0-----------0---2-------2---2---0---------------0------------| 
B|--2-------2---0---4---4---0---2-------2---2---0---4---4---4---0------------| 
G|--3-------3---0---4---4---0---3-------3---3---0---4---4---4---0------------| 
D|--4-------4---0---4---4---0---4-------4---4---0---4---4---4---0------------| 
A|--4-------4---0---2---2---0---4-------4---4---0---2---2---2---0------------| 
E|--2-------2---0-----------0---2-------2---2---0---------------0------------| 

Guitar 2: 
e|--14-----------------------------------------------------------------------| 
B|------17--17--17--17---16-17---16-17---16-17---16-17---16-17--\------------| 
G|---------------------------------------------------------------------------| 
D|---------------------------------------------------------------------------| 
A|---------------------------------------------------------------------------| 
E|---------------------------------------------------------------------------|  
		  

auto scroll beats size up size down change color hide chords drawings
tab show chords e-chords YouTube Clip e-chords hide all tabs e-chords go to top tab

share