Conjunto Primavera

Perdoname mi amor

Conjunto Primavera

tabs

by  KIKIN1976

save to print version add songbook text version e-mail correct tuner
chordsukulelecavacokeyboardtabbassdrumsharmonicaflute Guitar Pro
close

there isn't a video lesson for this song

chords

Perdoname mi amor

	  		    
Introduccion 
 
        Slide        Slide 
  e--5------4_5---4---2--5_7---5-----4----- 
  B--5---------5---5--3-----7---7----5----- 
  G--5-6--------------4--------------4----- 
  D--5--7-------------------------------- 
  A--5--7-------------------------------- 
  E--5---------------------------------- 
 
 
 
  e--4--5--7--4--5--5-------5------------------ 
  B--5--5--7--5--5----5-----5------------------ 
  G------------------6--6---5--6------------ 
  D-------------------------5----7-------- 
  A-------------------------5----7-------- 
  E-------------------------5------------ 
 
 
 
 
        Solo del medio 
 
   e------7--9---9---9---9---9---10--7---9-- 
   B--10--9--10--10--10--10--10--10--9---10- 
   G---9------------------------------------ 
   D--------------------------------------- 
   A--------------------------------------- 
   E--------------------------------------- 
 
 
             Bm     E    A 
 
   e------7--9---9---9---9---9---10--7---9-- 
   B--10--9--10--10--10--10--10--10--9---10- 
   G---9------------------------------------ 
   D--------------------------------------- 
   A--------------------------------------- 
   E--------------------------------------- 
 
            Bm    E      A 
 
   e------7--9---9---9---9---9---10--7---9-- 
   B--10--9--10--10--10--10--10--10--9---10- 
   G---9------------------------------------ 
   D--------------------------------------- 
   A--------------------------------------- 
   E--------------------------------------- 
 
 
             Bm    E   A 
 
   e------7--9---9---9---9---9---10--7---9-- 
   B--10--9--10--10--10--10--10--10--9---10- 
   G---9------------------------------------ 
   D--------------------------------------- 
   A--------------------------------------- 
   E--------------------------------------- 
 
              Bm  E  A 
 
 
   e---------------9-10-12-9-10----9------------ 
   B-------9-10-12--------------12---10-12-9-10- 
   G--9-11-------------------------------------- 

		  

Full key step upFull key step up
Half key step upHalf key step up
Half key step downHalf key step down
Full key step downFull key step down
hide glossary

See also:

tabs Enrique Bunbury - Voy A Perder La Cabeza Por Tu Amor tabs Enrique Bunbury - Sólo Si Me Perdonas tabs A Palo Seko - De Oca A Oca, De Hospital A Guarderia tabs Heroes del silencio - La Sirena Varada tabs Enrique Bunbury - Salomé tabs Heroes del silencio - Iberia Sumergida
e-chords

Other versions:

tabs Conjunto Primavera - Perdoname mi amor
auto scroll beats size up size down change color hide chords drawings
tab show chords e-chords YouTube Clip e-chords hide all tabs e-chords go to top tab

share