Coldfire

Welcome to my world

Coldfire

tabs

by  BANDACOLDFIRE

save to print version add songbook text version e-mail correct tuner
chordsukulelecavacokeyboardtabbassdrumsharmonicaflute Guitar Pro
close

there isn't a video lesson for this song

chords

Welcome to my world

(Braunner Borges)

	  		            Welcome to my world               


                                     ColdFire 
Bruno Theodoro 



     INTRO                   
     E     S E  S E  E  E    
E||------------------------| 
B||------------------------| 
G||---------------9--------| 
D||----------7-------7-----| 
A||--------7----7-------7--| 
D||--7---------------------| 


  E  S E  S E  E  E     E  S E  S E  E  E    
---------------------|---------------------| 
---------------------|---------------------| 
------------5--------|------------2--------| 
-------3-------3-----|-------0-------0-----| 
-----3----3-------3--|-----0----0-------0--| 
--3------------------|--0------------------| 


  E  S E  S E   E  E     E  S E  S E  E  E    
----------------------|---------------------| 
----------------------|---------------------| 
------------9--10--9--|------------9--------| 
-------7--------------|-------7-------7-----| 
-----7----7-----------|-----7----7-------7--| 
--7-------------------|--7------------------| 


  E  S E  S E  E  E     E  S E  S E  E  E    
---------------------|---------------------| 
---------------------|---------------------| 
------------5--------|------------2--------| 
-------3-------3-----|-------0-------0-----| 
-----3----3-------3--|-----0----0-------0--| 
--3------------------|--0------------------| 


  E  S E  S E   E  E     E  S E  S E  E  E    
----------------------|---------------------| 
----------------------|---------------------| 
------------9--10--9--|------------9--------| 
-------7--------------|-------7-------7-----| 
-----7----7-----------|-----7----7-------7--| 
--7-------------------|--7------------------| 


  E  S E  S E  E  E     E  S E  S E  E  E    
---------------------|---------------------| 
---------------------|---------------------| 
------------5--------|------------2--------| 
-------3-------3-----|-------0-------0-----| 
-----3----3-------3--|-----0----0-------0--| 
--3------------------|--0------------------| 


  E  S E  S E   E  E     E  S E  S E  E  E    
----------------------|---------------------| 
----------------------|---------------------| 
------------9--10--9--|------------9--------| 
-------7--------------|-------7-------7-----| 
-----7----7-----------|-----7----7-------7--| 
--7-------------------|--7------------------| 


  E  S E  S E  E  E     E  S E  S E  E  E    
---------------------|---------------------| 
---------------------|---------------------| 
------------5--------|------------2--------| 
-------3-------3-----|-------0-------0-----| 
-----3----3-------3--|-----0----0-------0--| 
--3------------------|--0------------------| 


                           NH             
  E  S E  S E   E  E       H.             
----------------------|-----------------| 
----------------------|-----------------| 
------------9--10--9--|--<>9------------| 
-------7--------------|-----------------| 
-----7----7-----------|-----------------| 
--7-------------------|-----------------| 
  PM PM PM PM PM PM PM PM PM PM   
  E  S  S  S  S  E  S  S  S  S    
--------------------------------| 
--------------------------------| 
--------------------------------| 
--7--7--7--7--7--7--------------| 
--7--7--7--7--7--7--------5-----| 
--7--7--7--7--7--7--5--7-----7--| 


  PM PM PM PM PM PM PM PM PM PM   
  E  S  S  S  S  E  S  S  S  S    
--------------------------------| 
--------------------------------| 
--------------------------------| 
--3--3--3--3--3--3--------------| 
--3--3--3--3--3--3--------3-----| 
--3--3--3--3--3--3--3--5-----5--| 


  PM PM PM PM PM PM                         
  E  S  S  S  S  E  Q       Q.     Q.       
-------------------------|----------------| 
-------------------------|----------------| 
-------------------------|----------------| 
--0--0--0--0--0--0-------|--7------5------| 
--0--0--0--0--0--0-------|--7------5------| 
--0--0--0--0--0--0-------|--7------5------| 


  PM PM PM PM PM PM PM PM PM PM   
  E  S  S  S  S  E  S  S  S  S    
--------------------------------| 
--------------------------------| 
--------------------------------| 
--7--7--7--7--7--7--------------| 
--7--7--7--7--7--7--------5-----| 
--7--7--7--7--7--7--5--7-----7--| 


  PM PM PM PM PM PM PM PM PM PM   
  E  S  S  S  S  E  S  S  S  S    
--------------------------------| 
--------------------------------| 
--------------------------------| 
--3--3--3--3--3--3--------------| 
--3--3--3--3--3--3--------3-----| 
--3--3--3--3--3--3--3--5-----5--| 


  PM PM PM PM PM PM        
  E  S  S  S  S  E  Q      
-------------------------| 
-------------------------| 
-------------------------| 
--0--0--0--0--0--0-------| 
--0--0--0--0--0--0-------| 
--0--0--0--0--0--0-------| 


  PM PM PM PM PM PM        
  E  S  S  S  S  E  Q      
-------------------------| 
-------------------------| 
-------------------------| 
--0--0--0--0--0--0-------| 
--0--0--0--0--0--0-------| 
--0--0--0--0--0--0-------| 


  PM PM PM PM PM PM PM PM PM PM   
  E  S  S  S  S  E  S  S  S  S    
--------------------------------| 
--------------------------------| 
--------------------------------| 
--7--7--7--7--7--7--------------| 
--7--7--7--7--7--7--------5-----| 
--7--7--7--7--7--7--5--7-----7--| 


  PM PM PM PM PM PM PM PM PM PM   
  E  S  S  S  S  E  S  S  S  S    
--------------------------------| 
--------------------------------| 
--------------------------------| 
--3--3--3--3--3--3--------------| 
--3--3--3--3--3--3--------3-----| 
--3--3--3--3--3--3--3--5-----5--| 


  PM PM PM PM PM PM        
  E  S  S  S  S  E  Q      
-------------------------| 
-------------------------| 
-------------------------| 
--0--0--0--0--0--0-------| 
--0--0--0--0--0--0-------| 
--0--0--0--0--0--0-------| 


  PM PM PM PM PM PM        
  E  S  S  S  S  E  Q      
-------------------------| 
-------------------------| 
-------------------------| 
--0--0--0--0--0--0-------| 
--0--0--0--0--0--0-------| 
--0--0--0--0--0--0-------| 


  PM PM PM PM PM PM PM PM PM PM   
  E  S  S  S  S  E  S  S  S  S    
--------------------------------| 
--------------------------------| 
--------------------------------| 
--7--7--7--7--7--7--------------| 
--7--7--7--7--7--7--------5-----| 
--7--7--7--7--7--7--5--7-----7--| 


  PM PM PM PM PM PM PM PM PM PM   
  E  S  S  S  S  E  S  S  S  S    
--------------------------------| 
--------------------------------| 
--------------------------------| 
--3--3--3--3--3--3--------------| 
--3--3--3--3--3--3--------3-----| 
--3--3--3--3--3--3--3--5-----5--| 


  PM PM PM PM PM PM        
  E  S  S  S  S  E  Q      
-------------------------| 
-------------------------| 
-------------------------| 
--0--0--0--0--0--0-------| 
--0--0--0--0--0--0-------| 
--0--0--0--0--0--0-------| 


  PM PM PM PM PM PM        
  E  S  S  S  S  E  Q      
-------------------------| 
-------------------------| 
-------------------------| 
--0--0--0--0--0--0-------| 
--0--0--0--0--0--0-------| 
--0--0--0--0--0--0-------| 


  E  S E  S E  E  E     E  S E  S E  E  E    
---------------------|---------------------| 
---------------------|---------------------| 
---------------------|---------------------| 
--0--0-0--0-0--0--0--|--3--3-3--3-3--3--3--| 
--0--0-0--0-0--0--0--|--3--3-3--3-3--3--3--| 
--0--0-0--0-0--0--0--|--3--3-3--3-3--3--3--| 


  E  S E  S E  E  E    
---------------------| 
---------------------| 
--5--5-5--5-5--5--5--| 
--5--5-5--5-5--5--5--| 
--3--3-3--3-3--3--3--| 
---------------------| 


           PM PM PM PM PM PM   
  E  E  E  S  S  S  S  S  S    
-----------------------------| 
-----------------------------| 
-----------------------------| 
--2--2--2--------------------| 
--2--2--2--------3-----3-----| 
--2--2--2--3--5-----5-----5--| 


  E  S E  S E  E  E     E  S E  S E  E  E    
---------------------|---------------------| 
---------------------|---------------------| 
---------------------|---------------------| 
--0--0-0--0-0--0--0--|--3--3-3--3-3--3--3--| 
--0--0-0--0-0--0--0--|--3--3-3--3-3--3--3--| 
--0--0-0--0-0--0--0--|--3--3-3--3-3--3--3--| 


  E  S E  S E  E  E    
---------------------| 
---------------------| 
--5--5-5--5-5--5--5--| 
--5--5-5--5-5--5--5--| 
--3--3-3--3-3--3--3--| 
---------------------| 


           PM PM PM PM PM PM   
  E  E  E  S  S  S  S  S  S    
-----------------------------| 
-----------------------------| 
-----------------------------| 
--2--2--2--------------------| 
--2--2--2--------3-----3-----| 
--2--2--2--3--5-----5-----5--| 


  E  S E  S E  E  E     E  S E  S E  E  E    
---------------------|---------------------| 
---------------------|---------------------| 
---------------------|---------------------| 
--0--0-0--0-0--0--0--|--3--3-3--3-3--3--3--| 
--0--0-0--0-0--0--0--|--3--3-3--3-3--3--3--| 
--0--0-0--0-0--0--0--|--3--3-3--3-3--3--3--| 


  E  S E  S E  E  E    
---------------------| 
---------------------| 
--5--5-5--5-5--5--5--| 
--5--5-5--5-5--5--5--| 
--3--3-3--3-3--3--3--| 
---------------------| 


           PM PM PM PM PM PM   
  E  E  E  S  S  S  S  S  S    
-----------------------------| 
-----------------------------| 
-----------------------------| 
--2--2--2--------------------| 
--2--2--2--------3-----3-----| 
--2--2--2--3--5-----5-----5--| 


  E  S E  S E  E  E     E  S E  S E  E  E    
---------------------|---------------------| 
---------------------|---------------------| 
---------------------|---------------------| 
--0--0-0--0-0--0--0--|--3--3-3--3-3--3--3--| 
--0--0-0--0-0--0--0--|--3--3-3--3-3--3--3--| 
--0--0-0--0-0--0--0--|--3--3-3--3-3--3--3--| 


  E  S E  S E  E  E     H.             
---------------------|---------------| 
---------------------|---------------| 
--5--5-5--5-5--5--5--|---------------| 
--5--5-5--5-5--5--5--|--2------------| 
--3--3-3--3-3--3--3--|--2------------| 
---------------------|--2------------| 


  H.              H.                       
---------------|---------------|----|----| 
---------------|---------------|----|----| 
---------------|---------------|----|----| 
--0------------|--L------------|----|----| 
--0------------|--L------------|----|----| 
--0------------|--L------------|----|----|  E  S E  S E  E  E     E  S E  S E  E  E    
---------------------|---------------------| 
---------------------|---------------------| 
------------9--------|------------5--------| 
-------7-------7-----|-------3-------3-----| 
-----7----7-------7--|-----3----3-------3--| 
--7------------------|--3------------------| 


  E  S E  S E  E  E     E  S E  S E   E  E    
---------------------|----------------------| 
---------------------|----------------------| 
------------2--------|------------9--10--9--| 
-------0-------0-----|-------7--------------| 
-----0----0-------0--|-----7----7-----------| 
--0------------------|--7-------------------| 


  E  S E  S E  E  E     E  S E  S E  E  E    
---------------------|---------------------| 
---------------------|---------------------| 
------------9--------|------------5--------| 
-------7-------7-----|-------3-------3-----| 
-----7----7-------7--|-----3----3-------3--| 
--7------------------|--3------------------| 


  E  S E  S E  E  E     E  S E  S E   E  E    
---------------------|----------------------| 
---------------------|----------------------| 
------------2--------|------------9--10--9--| 
-------0-------0-----|-------7--------------| 
-----0----0-------0--|-----7----7-----------| 
--0------------------|--7-------------------| 


  E  S E  S E  E  E     E  S E  S E  E  E    
---------------------|---------------------| 
---------------------|---------------------| 
------------9--------|------------5--------| 
-------7-------7-----|-------3-------3-----| 
-----7----7-------7--|-----3----3-------3--| 
--7------------------|--3------------------| 


  E  S E  S E  E  E     E  S E  S E   E  E    
---------------------|----------------------| 
---------------------|----------------------| 
------------2--------|------------9--10--9--| 
-------0-------0-----|-------7--------------| 
-----0----0-------0--|-----7----7-----------| 
--0------------------|--7-------------------| 


  E  S E  S E  E  E     E  S E  S E  E  E    
---------------------|---------------------| 
---------------------|---------------------| 
------------9--------|------------5--------| 
-------7-------7-----|-------3-------3-----| 
-----7----7-------7--|-----3----3-------3--| 
--7------------------|--3------------------| 


  E  S E  S E  E  E     E  S E  S E   E  E    
---------------------|----------------------| 
---------------------|----------------------| 
------------2--------|------------9--10--9--| 
-------0-------0-----|-------7--------------| 
-----0----0-------0--|-----7----7-----------| 
--0------------------|--7-------------------| 
 PM PM PM PM PM PM PM PM PM PM   
  E  S  S  S  S  E  S  S  S  S    
--------------------------------| 
--------------------------------| 
--------------------------------| 
--7--7--7--7--7--7--------------| 
--7--7--7--7--7--7--------5-----| 
--7--7--7--7--7--7--5--7-----7--| 


  PM PM PM PM PM PM PM PM PM PM   
  E  S  S  S  S  E  S  S  S  S    
--------------------------------| 
--------------------------------| 
--------------------------------| 
--3--3--3--3--3--3--------------| 
--3--3--3--3--3--3--------3-----| 
--3--3--3--3--3--3--3--5-----5--| 


  PM PM PM PM PM PM                         
  E  S  S  S  S  E  Q       Q.     Q.       
-------------------------|----------------| 
-------------------------|----------------| 
-------------------------|----------------| 
--0--0--0--0--0--0-------|--7------5------| 
--0--0--0--0--0--0-------|--7------5------| 
--0--0--0--0--0--0-------|--7------5------| 


  PM PM PM PM PM PM PM PM PM PM   
  E  S  S  S  S  E  S  S  S  S    
--------------------------------| 
--------------------------------| 
--------------------------------| 
--7--7--7--7--7--7--------------| 
--7--7--7--7--7--7--------5-----| 
--7--7--7--7--7--7--5--7-----7--| 


  PM PM PM PM PM PM PM PM PM PM   
  E  S  S  S  S  E  S  S  S  S    
--------------------------------| 
--------------------------------| 
--------------------------------| 
--3--3--3--3--3--3--------------| 
--3--3--3--3--3--3--------3-----| 
--3--3--3--3--3--3--3--5-----5--| 


  PM PM PM PM PM PM        
  E  S  S  S  S  E  Q      
-------------------------| 
-------------------------| 
-------------------------| 
--0--0--0--0--0--0-------| 
--0--0--0--0--0--0-------| 
--0--0--0--0--0--0-------| 


  PM PM PM PM PM PM        
  E  S  S  S  S  E  Q      
-------------------------| 
-------------------------| 
-------------------------| 
--0--0--0--0--0--0-------| 
--0--0--0--0--0--0-------| 
--0--0--0--0--0--0-------| 


  PM PM PM PM PM PM PM PM PM PM   
  E  S  S  S  S  E  S  S  S  S    
--------------------------------| 
--------------------------------| 
--------------------------------| 
--7--7--7--7--7--7--------------| 
--7--7--7--7--7--7--------5-----| 
--7--7--7--7--7--7--5--7-----7--| 


  PM PM PM PM PM PM PM PM PM PM   
  E  S  S  S  S  E  S  S  S  S    
--------------------------------| 
--------------------------------| 
--------------------------------| 
--3--3--3--3--3--3--------------| 
--3--3--3--3--3--3--------3-----| 
--3--3--3--3--3--3--3--5-----5--| 


  PM PM PM PM PM PM        
  E  S  S  S  S  E  Q      
-------------------------| 
-------------------------| 
-------------------------| 
--0--0--0--0--0--0-------| 
--0--0--0--0--0--0-------| 
--0--0--0--0--0--0-------| 


  PM PM PM PM PM PM        
  E  S  S  S  S  E  Q      
-------------------------| 
-------------------------| 
-------------------------| 
--0--0--0--0--0--0-------| 
--0--0--0--0--0--0-------| 
--0--0--0--0--0--0-------| 


  PM PM PM PM PM PM PM PM PM PM   
  E  S  S  S  S  E  S  S  S  S    
--------------------------------| 
--------------------------------| 
--------------------------------| 
--7--7--7--7--7--7--------------| 
--7--7--7--7--7--7--------5-----| 
--7--7--7--7--7--7--5--7-----7--| 


  PM PM PM PM PM PM PM PM PM PM   
  E  S  S  S  S  E  S  S  S  S    
--------------------------------| 
--------------------------------| 
--------------------------------| 
--3--3--3--3--3--3--------------| 
--3--3--3--3--3--3--------3-----| 
--3--3--3--3--3--3--3--5-----5--| 


  PM PM PM PM PM PM        
  E  S  S  S  S  E  Q      
-------------------------| 
-------------------------| 
-------------------------| 
--0--0--0--0--0--0-------| 
--0--0--0--0--0--0-------| 
--0--0--0--0--0--0-------| 


  PM PM PM PM PM PM        
  E  S  S  S  S  E  Q      
-------------------------| 
-------------------------| 
-------------------------| 
--0--0--0--0--0--0-------| 
--0--0--0--0--0--0-------| 
--0--0--0--0--0--0-------| 


  S S S S S S S S S S S S   
--5-3-0-5-3-0-5-3-0-5-3-0-| 
--------------------------| 
--------------------------| 
--------------------------| 
--------------------------| 
--------------------------| 


  S S S S S S S S S S S S   
--5-3-0-5-3-0-5-3-0-5-3-0-| 
--------------------------| 
--------------------------| 
--------------------------| 
--------------------------| 
--------------------------| 


  S S S S S S S S S S S S   
--5-3-0-5-3-0-5-3-0-5-3-0-| 
--------------------------| 
--------------------------| 
--------------------------| 
--------------------------| 
--------------------------| 


  S S S S S S S S S S S S   
--5-3-0-5-3-0-5-3-0-5-3-0-| 
--------------------------| 
--------------------------| 
--------------------------| 
--------------------------| 
--------------------------| 


   T         T         T         T         
   S  S  S   S  S  S   S  S  S   S  S  S   
--12p-5h-7h-12p-5h-8h-12p-5h-7h-12p-5h-8-| 
-----------------------------------------| 
-----------------------------------------| 
-----------------------------------------| 
-----------------------------------------| 
-----------------------------------------| 


   T         T         T         T         
   S  S  S   S  S  S   S  S  S   S  S  S   
--12p-5h-7h-12p-5h-8h-12p-5h-7h-12p-5h-8-| 
-----------------------------------------| 
-----------------------------------------| 
-----------------------------------------| 
-----------------------------------------| 
-----------------------------------------| 


   T         T         T         T         
   S  S  S   S  S  S   S  S  S   S  S  S   
--12p-5h-7h-12p-5h-8h-12p-5h-7h-12p-5h-8-| 
-----------------------------------------| 
-----------------------------------------| 
-----------------------------------------| 
-----------------------------------------| 
-----------------------------------------| 


   T         T         T         T           
   S  S  S   S  S  S   S  S  S   S  S  S     
--12p-5h-7h-12p-5h-8h-12p-5h-7h-12p-5h-8br-| 
-------------------------------------------| 
-------------------------------------------| 
-------------------------------------------| 
-------------------------------------------| 
-------------------------------------------| 


  H.              H.             
--L------------|--L------------| 
---------------|--L------------| 
---------------|---------------| 
---------------|---------------| 
---------------|---------------| 
---------------|---------------| 


  S  S  S  S S  S  S S  S  S  S S   
--8-10-11-10-8-10-11-8-10-11-10-8-| 
----------------------------------| 
----------------------------------| 
----------------------------------| 
----------------------------------| 
----------------------------------| 


   S  S  S S  S  S S  S  S  S S  S   
--10-11-10-8-10-11-8-10-11-10-8-10-| 
-----------------------------------| 
-----------------------------------| 
-----------------------------------| 
-----------------------------------| 
-----------------------------------| 


  S S S S S S S S S S S S   
--------------------------| 
--------------------------| 
--------------------------| 
----------x-x-----x-x-----| 
------x-x-------------x-x-| 
--x-x---------------------| 


  S S S S S S S S S S S S   
--------------------------| 
--------------------------| 
--------------------------| 
----------x-x-----x-x-----| 
------x-x-------------x-x-| 
--x-x---------------------| 


  S S S S S S S S S S S S   
--------------------------| 
--------------------------| 
--------------------------| 
----------x-x-----x-x-----| 
------x-x-------------x-x-| 
--x-x---------------------| 


  S S S S S S S S S S S S   
--------------------------| 
--------------------------| 
--------------------------| 
--x-x-x-x-x-x-x-x-x-x-x-x-| 
--x-x-x-x-x-x-x-x-x-x-x-x-| 
--x-x-x-x-x-x-x-x-x-x-x-x-| 


  E  S E  S E  E  E     E  S E  S E  E  E    
---------------------|---------------------| 
---------------------|---------------------| 
---------------------|---------------------| 
--0--0-0--0-0--0--0--|--3--3-3--3-3--3--3--| 
--0--0-0--0-0--0--0--|--3--3-3--3-3--3--3--| 
--0--0-0--0-0--0--0--|--3--3-3--3-3--3--3--| 


  E  S E  S E  E  E    
---------------------| 
---------------------| 
--5--5-5--5-5--5--5--| 
--5--5-5--5-5--5--5--| 
--3--3-3--3-3--3--3--| 
---------------------| 


           PM PM PM PM PM PM   
  E  E  E  S  S  S  S  S  S    
-----------------------------| 
-----------------------------| 
-----------------------------| 
--2--2--2--------------------| 
--2--2--2--------3-----3-----| 
--2--2--2--3--5-----5-----5--| 


  E  S E  S E  E  E     E  S E  S E  E  E    
---------------------|---------------------| 
---------------------|---------------------| 
---------------------|---------------------| 
--0--0-0--0-0--0--0--|--3--3-3--3-3--3--3--| 
--0--0-0--0-0--0--0--|--3--3-3--3-3--3--3--| 
--0--0-0--0-0--0--0--|--3--3-3--3-3--3--3--| 


  E  S E  S E  E  E    
---------------------| 
---------------------| 
--5--5-5--5-5--5--5--| 
--5--5-5--5-5--5--5--| 
--3--3-3--3-3--3--3--| 
---------------------| 


           PM PM PM PM PM PM   
  E  E  E  S  S  S  S  S  S    
-----------------------------| 
-----------------------------| 
-----------------------------| 
--2--2--2--------------------| 
--2--2--2--------3-----3-----| 
--2--2--2--3--5-----5-----5--| 


  E  S E  S E  E  E     E  S E  S E  E  E    
---------------------|---------------------| 
---------------------|---------------------| 
---------------------|---------------------| 
--0--0-0--0-0--0--0--|--3--3-3--3-3--3--3--| 
--0--0-0--0-0--0--0--|--3--3-3--3-3--3--3--| 
--0--0-0--0-0--0--0--|--3--3-3--3-3--3--3--| 


  E  S E  S E  E  E    
---------------------| 
---------------------| 
--5--5-5--5-5--5--5--| 
--5--5-5--5-5--5--5--| 
--3--3-3--3-3--3--3--| 
---------------------| 


           PM PM PM PM PM PM   
  E  E  E  S  S  S  S  S  S    
-----------------------------| 
-----------------------------| 
-----------------------------| 
--2--2--2--------------------| 
--2--2--2--------3-----3-----| 
--2--2--2--3--5-----5-----5--| 


  E  S E  S E  E  E     E  S E  S E  E  E    
---------------------|---------------------| 
---------------------|---------------------| 
---------------------|---------------------| 
--0--0-0--0-0--0--0--|--3--3-3--3-3--3--3--| 
--0--0-0--0-0--0--0--|--3--3-3--3-3--3--3--| 
--0--0-0--0-0--0--0--|--3--3-3--3-3--3--3--| 


  E  S E  S E  E  E    
---------------------| 
---------------------| 
--5--5-5--5-5--5--5--| 
--5--5-5--5-5--5--5--| 
--3--3-3--3-3--3--3--| 
---------------------| 


           PM PM PM PM PM PM   
  E  E  E  S  S  S  S  S  S    
-----------------------------| 
-----------------------------| 
-----------------------------| 
--2--2--2--------------------| 
--2--2--2--------3-----3-----| 
--2--2--2--3--5-----5-----5--| 


---------------|-----|| 
---------------|-----|| 
---------------|-----|| 
---------------|-----|| 
---------------|-----|| 
---------------|-----|| 




Duration Legend 
--------------- 
W - whole 
H - half 
Q - quarter 
E - 8th 
S - 16th 
T - 32nd 
X - 64th 
. - note dotted 
|-n-|  - n-tuplets 


Tablature Legend 
---------------- 
L - tied note 
x - dead note 
g - grace note 
(n) - ghost note 
> - accentuded note 
NH - natural harmonic 
AH - artificial harmonic 
TH - tapped harmonic 
SH - semi harmonic 
PH - pitch harmonic 
h - hammer on 
p - pull off 
b - bend 
br - bendRelease 
pb - preBend 
pbr - preBendRelease 
brb - bendReleaseBend 
\n/ - tremolo bar dip 
\n - tremolo bar dive 
-/n - tremolo bar Release up 
/n\ - tremolo bar inverted dip 
/n - tremolo bar return 
-\n - tremolo bar Release down 
S - shift slide 
s - legato slide 
/ -  slide into from below or out of upwards 
\ -  slide into from above or out of downwards 
~ - vibrato 
W - wide vibrato 
tr - trill 
TP - tremolo picking 
T - tapping 
S - slap 
P - pop 
< - fade in 
^ - brush up 
v - brush down 
		  

See also:

tabs Nirvana - Smells like Teen Spirit ( intro) tabs Nirvana - Frances Farmer Will Have Her Revenge On Seattle tabs Nirvana - Smeel Like Teen Spirit tabs Nirvana - Rape Me tabs Nirvana - All apoligies (Ver.2) tabs Nirvana - Heart-shaped Box
e-chords

Other versions:

tabs Coldfire - Welcome to my world tabs Elvis Presley - Welcome To My World
auto scroll beats size up size down change color hide chords drawings
tab show chords e-chords YouTube Clip e-chords hide all tabs e-chords go to top tab

share