Cloudkicker

Cloud-hidden Whereabouts Unknown

Cloudkicker

tabs

by  RENEJUNIOR

save to print version add songbook text version e-mail correct tuner
chordsukulelecavacokeyboardtabbassdrumsharmonicaflute Guitar Pro
close

there isn't a video lesson for this song

chords

Cloud-hidden Whereabouts Unknown

	  		

Beginning guitar part: 

E  :----------0-----|--4-------0-----|----------------|----------------| 
B  :------0---------|0-----0-------0-|4-----0-2-4---0-|----------0-----| 
G  :----1---------1-|----1-------1---|1---1-----------|1-----1---------| 
D  :----------------|----------------|----------------|1---1-------1-4-| 
A  :----------------|----------------|4-----------4---|----------------| 
E  :0-------0-------|0-------0-------|----------------|4-----4---------| 


I believe this then loops through the rest of the song, I wasn't sure about the rhythm of the last bar: 

E  :0---------0-----|2-4-------0-----|----------------|----------------| 
B  :------0---------|------0-------0-|4-----0-2-4---0-|--0-------0-----| 
G  :----1---------1-|----1-------1---|----1---1-------|1---------------| 
D  :----------------|----------------|----------------|1---------------| 
A  :----------------|----------------|4-----------4---|------------6-9-| 
E  :0-------0-------|0-------0-------|----------------|4-------4-------| 
		  

See also:

tabs Deep Purple - Lazy tabs Deep Purple - Highway Star tabs Deep Purple - Demon's Eye tabs Deep Purple - Smoke on the water (easy ver.) tabs Deep Purple - Perfect Strangers tabs Deep Purple - Deep Purple - Smoke On The Water
e-chords

Other versions:

tabs Cloudkicker - Cloud-hidden Whereabouts Unknown
auto scroll beats size up size down change color hide chords drawings
tab show chords e-chords YouTube Clip e-chords hide all tabs e-chords go to top tab

share