Carnifex

Until I Feel Nothing

Carnifex

tabs Expert expert

by  MAR-GOBBO

save to print version add songbook text version e-mail correct tuner
chordsukulelecavacokeyboardtabbassdrumsharmonicaflute Guitar Pro
close

there isn't a video lesson for this song

chords

Until I Feel Nothing

	  		 
Tuning: Drop  A  

    Riff 1 a 
 E   |------------------|------------------|----------------| 
 B   |------------------|------------------|----------------| 
 G   |------------------|------------------|----------------| 
 D   |------------------|------------------|----------------| 
 A   |4---4-4-4-----3---|--------4---4-4-4-|----5-----------| 
 E   |2---2-2-2-----1---|2---1---2---2-2-2-|----3---4---3---| 
 A   |------------------|2---1-------------|--------4---3---| 


 E   |------------------|------------------|----------------| 
 B   |------------------|------------------|----------------| 
 G   |------------------|------------------|----------------| 
 D   |------------------|------------------|----------------| 
 A   |4---4-4-4-----3---|--------4---4-4-4-|----5---4---3---| 
 E   |2---2-2-2-----1---|2---1---2---2-2-2-|----3---2---1---| 
 A   |------------------|2---1-------------|----------------| 

                                                                             

    Riff 1 b 
 E   |------------------|------------------|----------------| 
 B   |------------------|------------------|----------------| 
 G   |------------------|------------------|----------------| 
 D   |------------------|------------------|----------------| 
 A   |------------------|------------------|----------------| 
 E   |2---2-2-2-----1---|2---1---2---2-2-2-|----------------| 
 A   |2---2-2-2-----1---|2---1---2---2-2-2-|----3---4---3---| 


 E   |------------------|------------------|----------------| 
 B   |------------------|------------------|----------------| 
 G   |------------------|------------------|----------------| 
 D   |------------------|------------------|----------------| 
 A   |------------------|------------------|----------------| 
 E   |2---2-2-2-----1---|2---1---2---2-2-2-|----3---2---1---| 
 A   |2---2-2-2-----1---|2---1---2---2-2-2-|----3---2---1---| 

                                                                             

    Riff 2 
 E   |------------------|----------------|------------------|----------------| 
 B   |------------------|----------------|------------------|----------------| 
 G   |------------------|----------------|------------------|----------------| 
 D   |----------4-----5-|----2---4---5---|----------5-----4-|----2-----------| 
 A   |4-4-4-4-4---------|----------------|4-4-4-4-4---------|--------5---4---| 
 E   |2-2-2-2-2---2-2---|2-2---2---2-----|2-2-2-2-2---2-2---|2-2---2---2-----| 
 A   |------------------|----------------|------------------|----------------| 



 E   |------------------|----------------|------------------|----------------| 
 B   |------------------|----------------|------------------|----------------| 
 G   |------------------|----------------|------------------|----------------| 
 D   |------------------|----------------|------------------|--------0-------| 
 A   |2-2-2-2-2-5-----4-|----2---4---5---|0-0-0-0-0-5-----4-|----5-4---4---2-| 
 E   |3-3-3-3-3---3-3---|3-3---3---3-----|2-2-2-2-2---2-2---|2-2---------3---| 
 A   |------------------|----------------|------------------|----------------| 

                                                                             

    Riff 3 a 
 E   |-------------------------------|---------------------------------------| 
 B   |-------------------------------|---------------------------------------| 
 G   |-------------------------------|---------------------------------------| 
 D   |-------------------------------|---------------------------------------| 
 A   |9-9-9-9---------9-9-9-9--------|9-9-9-9-10-10-10-10-7-7-7-7-10-10-10-10| 
 E   |-------------------------------|---------------------------------------| 
 A   |--------9-9-9-9---------9-9-9-9|---------------------------------------| 



 E   |-------------------------------|-----------------------------------| 
 B   |-------------------------------|-----------------------------------| 
 G   |-------------------------------|-----------------------------------| 
 D   |-------------------------------|-----------------------------------| 
 A   |9-9-9-9---------9-9-9-9--------|9-9-9-9-10-10-10-10-9-9-9-9-7-7-7-7| 
 E   |-------------------------------|-----------------------------------| 
 A   |--------9-9-9-9---------9-9-9-9|-----------------------------------| 


    Riff 3 b 
 E   |-------------------------------|-------------------------------| 
 B   |-------------------------------|-------------------------------| 
 G   |-------------------------------|-------------------------------| 
 D   |-------------------------------|-------------------------------| 
 A   |-------------------------------|-------------------------------| 
 E   |7-7-7-7---------7-7-7-7--------|7-7-7-7------------------------| 
 A   |--------7-7-7-7---------7-7-7-7|--------7-7-7-7-6-6-6-6-4-4-4-4| 



 E   |-------------------------------|-------------------------------| 
 B   |-------------------------------|-------------------------------| 
 G   |-------------------------------|-------------------------------| 
 D   |-------------------------------|-------------------------------| 
 A   |-------------------------------|-------------------------------| 
 E   |7-7-7-7---------7-7-7-7--------|----------------4-4-4-4-6-6-6-6| 
 A   |--------4-4-4-4---------4-4-4-4|7-7-7-7-6-6-6-6----------------| 


                                                                             

    Riff 3 b Harmony 
 E   |-----------------------------------------------| 
 B   |-----------------------------------------------| 
 G   |-----------------------------------------------| 
 D   |-----------------------------------------------| 
 A   |-----------------------------------------------| 
 E   |10-10-10-10-------------10-10-10-10------------| 
 A   |------------10-10-10-10-------------10-10-10-10| 



 E   |---------------------------------------| 
 B   |---------------------------------------| 
 G   |---------------------------------------| 
 D   |---------------------------------------| 
 A   |---------------------------------------| 
 E   |10-10-10-10----------------------------| 
 A   |------------10-10-10-10-9-9-9-9-7-7-7-7| 



 E   |---------------------------------------| 
 B   |---------------------------------------| 
 G   |---------------------------------------| 
 D   |---------------------------------------| 
 A   |---------------------------------------| 
 E   |10-10-10-10---------10-10-10-10--------| 
 A   |------------7-7-7-7-------------7-7-7-7| 



 E   |-----------------------------------| 
 B   |-----------------------------------| 
 G   |-----------------------------------| 
 D   |-----------------------------------| 
 A   |-----------------------------------| 
 E   |--------------------7-7-7-7-9-9-9-9| 
 A   |10-10-10-10-9-9-9-9----------------| 

                                                                             

    Riff 4 
 E   |----------------------|-------------------------------| 
 B   |----------------------|-------------------------------| 
 G   |----------------------|-------------------------------| 
 D   |----------------------|-------------------------------| 
 A   |----------------------|-------------------------------| 
 E   |2-2-2-2*---2-2-2-2*---|-------------------------------| 
 A   |2-2-2-2*---2-2-2-2*---|2-2-2-2-3-3-3-3-0-0-0-0-3-3-3-3| 



 E   |----------------------|-------------------------------| 
 B   |----------------------|-------------------------------| 
 G   |----------------------|-------------------------------| 
 D   |----------------------|-------------------------------| 
 A   |----------------------|-------------------------------| 
 E   |2-2-2-2*---2-2-2-2*---|-------------------------------| 
 A   |2-2-2-2*---2-2-2-2*---|2-2-2-2-3-3-3-3-2-2-2-2-0-0-0-0| 



 E   |----------------------|---------------------------| 
 B   |----------------------|---------------------------| 
 G   |----------------------|---------------------------| 
 D   |----------------------|---------------------------| 
 A   |----------------------|---------------------------| 
 E   |----3-3-3-3*---3-3-3-3|*--------------------------| 
 A   |----3-3-3-3*---3-3-3-3|*---3-3-3-3-2-2-2-2-0-0-0-0| 



 E   |----------------------|-------------------------------| 
 B   |----------------------|-------------------------------| 
 G   |----------------------|-------------------------------| 
 D   |----------------------|-------------------------------| 
 A   |----------------------|-------------------------------| 
 E   |----0-0-0-0*---0-0-0-0|----------------0-0-0-0-2-2-2-2| 
 A   |----0-0-0-0*---0-0-0-0|3-3-3-3-2-2-2-2----------------| 

                                                                             

     Riff 5 
 E   |--------------------|----------------|--------------------| 
 B   |--------------------|----------------|--------------------| 
 G   |--------------------|----------------|--------------------| 
 D   |--------------------|----------------|--------------------| 
 A   |--------------------|----------------|--------------------| 
 E   |2-2-1-1-0-0-0-0-0-0-|0-0-0-0-0-0-0-0-|2-2-1-1-0-0-0-0-0-0-| 
 A   |--------1-1-1-1-1-1-|1-1-1-1-1-1-1-1-|--------1-1-1-1-1-1-| 



 E   |--------------------|--------------------| 
 B   |--------------------|--------------------| 
 G   |--------------------|--------------------| 
 D   |--------------------|--------------------| 
 A   |--------------------|--------------------| 
 E   |2-2-1-1-0-0-0-0-0-0-|0-0-0-0-2-2-1-1-0-0-| 
 A   |--------1-1-1-1-1-1-|1-1-1-1---------1-1-| 


                                                                             

      Riff 5 Harmony 
 E   || --------------------|----------------|--------------------| 
 B   || --------------------|----------------|--------------------| 
 G   || --------------------|----------------|--------------------| 
 D   ||*--------------------|----------------|--------------------| 
 A   ||*--------------------|----------------|--------------------| 
 E   || --------0-0-0-0-0-0-|0-0-0-0-0-0-0-0-|--------0-0-0-0-0-0-| 
 A   || 3-3-2-2-1-1-1-1-1-1-|1-1-1-1-1-1-1-1-|3-3-2-2-1-1-1-1-1-1-| 



 E   |--------------------|--------------------| 
 B   |--------------------|--------------------| 
 G   |--------------------|--------------------| 
 D   |--------------------|--------------------| 
 A   |--------------------|--------------------| 
 E   |--------0-0-0-0-0-0-|0-0-0-0---------0-0-| 
 A   |3-3-2-2-1-1-1-1-1-1-|1-1-1-1-3-3-2-2-1-1-| 

                                                                             



    Riff 6 
 E   |----------------|----------------|----------------|------------------| 
 B   |----------------|----------------|----------------|------------------| 
 G   |----------------|----------------|----------------|------------------| 
 D   |----------------|----------------|----------------|------------------| 
 A   |----------------|----------------|----------------|------------------| 
 E   |2-1-0-0-0---0---|0-0-0-0---------|2-1-0-0-0---0---|0-0-0-0-----------| 
 A   |3-2-1-1-1---1---|1-1-1-1---------|3-2-1-1-1---1---|1-1-1-1---33332222| 


                                                                             

    Riff 7 Guitar 1 part1 

 E   |----------------|-----------------|----------------|-----------------| 
 B   |----------------|-----------------|----------------|-----------------| 
 G   |----------------|-----------------|----------------|-----------------| 
 D   |----------------|-----------------|----------------|7-9--------------| 
 A   |-----7-9--------|7-10-9-------7-9-|--------7-10-9--|----10-----9-7---| 
 E   |7-10-----7-10-9-|--------7-10-----|7-10-9----------|---------------9-| 
 A   |----------------|-----------------|----------------|-----------------| 

    Riff 7 Guitar 2 part1 

 E   |----------------|-----------------|----------------|-----------------| 
 B   |----------------|-----------------|----------------|-----------------| 
 G   |----------------|-----------------|----------------|-----------------| 
 D   |----------------|-----------------|----------------|-----------------| 
 A   |3--------2------|0-0-0-0----------|3------2--------|0-0-0-0----------| 
 E   |5--------3------|2-2-2-2----------|5------3--------|2-2-2-2---2------| 
 A   |----------------|-----------------|----------------|----------2------| 

                                                                             

    Riff 7 Guitar 1 part 2 1 
 E   |----------------|-----------------|----------------|-----------------| 
 B   |----------------|-----------------|----------------|-----------------| 
 G   |----------------|-----------------|----------------|-----------------| 
 D   |----------------|-----------------|----------------|7-9--------------| 
 A   |-----7-9--------|7-10-9-------7-9-|--------7-10-9--|----10-----9-7---| 
 E   |7-10-----7-10-9-|--------7-10-----|7-10-9----------|---------------9-| 
 A   |----------------|-----------------|----------------|-----------------| 


    Riff 7 Guitar 2 part 2 2 
 E   |-----------------|-----------------|---------------|-----------------| 
 B   |-----------------|-----------------|---------------|-----------------| 
 G   |-----------------|-----------------|---------------|-----------------| 
 D   |-----------------|-----------------|---------------|-----------------| 
 A   |-----------------|-----------------|---------------|9-10-------------| 
 E   |-----9-10--------|9-12-10----------|--------9-12-10|----12-----11-9--| 
 A   |10-13----10-13-12|-----------------|10-13-12-------|---------------12| 

                                                                             

   Riff 8 Breakdown intro Guitar 1 
 E   |----------------|----------------|----------------| 
 B   |----------------|----------------|----------------| 
 G   |----------------|----------------|----------------| 
 D   |----------------|----------------|----------------| 
 A   |----------------|----------------|----------------| 
 E   |----------------|----------------|----------------| 
 A   |00000*----------|--------00000000|0-*-------------| 

    Riff 8 Breakdown intro Guitar 2 
 E   |----------------|----------------|----------------| 
 B   |----------------|----------------|----------------| 
 G   |----------------|----------------|----------------| 
 D   |----------------|----------------|----------------| 
 A   |----------------|----------------|----------------| 
 E   |----------------|----------------|----------------| 
 A   |--------00000000|0*--------------|----------------| 

                                                                             

    Breakdown 
 E   |----------------|----------------|----------------|----------------| 
 B   |----------------|----------------|----------------|----------------| 
 G   |----------------|----------------|----------------|----------------| 
 D   |----------------|----------------|----------------|----------------| 
 A   |----------------|----------------|----------------|----------------| 
 E   |----------------|----------------|----------------|----------------| 
 A   |00000*--00000000|0*------00000000|0*--------------|----------------| 


 E   |----------------|----------------|----------------|----------------| 
 B   |----------------|----------------|----------------|----------------| 
 G   |----------------|----------------|----------------|----------------| 
 D   |----------------|----------------|----------------|----------------| 
 A   |----------------|----------------|----------------|----------------| 
 E   |----------------|----------------|----------------|----------------| 
 A   |00000*--00000000|0*------00000000|0*--------------|----------------| 


 E   |----------------|----------------|----------------|----------------| 
 B   |----------------|----------------|----------------|----------------| 
 G   |----------------|----------------|----------------|----------------| 
 D   |----------------|----------------|----------------|----------------| 
 A   |----------------|----------------|----------------|----------------| 
 E   |----------------|----------------|----------------|----------------| 
 A   |00000*--00000000|0*------00000000|0*------00000000|0*--------------| 


 E   |----------------|----------------|----------------| 
 B   |----------------|----------------|----------------| 
 G   |----------------|----------------|----------------| 
 D   |----------------|----------------|----------------| 
 A   |----------------|----------------|----------------| 
 E   |----------------|----------------|----------------| 
 A   |00000*--00000000|0*------00000000|0*--------------| 
		  

See also:

tabs Metallica - Ecstasy of gold tabs Megadeth - Peace Sells tabs Metallica - Seek And Destroy tabs Metallica - Master Of Puppets Solo tabs Metallica - Enter sandman (solo) tabs Metallica - Orion
e-chords

Other versions:

tabs Carnifex - Until I Feel Nothing
auto scroll beats size up size down change color hide chords drawings
tab show chords e-chords YouTube Clip e-chords hide all tabs e-chords go to top tab

share