Cantor Cristão

home > Cantor Cristão

Amor Sem Igual Tab

Cantor Cristão

Difficulty: nolevelnolevel

by HELON

tuner correct add songbook print version text version save to e-mail
chordsukulelecavacokeyboardtabbassdrumsharmonicsflute Guitar Pro
chords

Amor Sem Igual

(Cantor Cristão)

  		


E|------------------------------------------------------------------------------------------| 
B|---------------------0-0--0-0--0--2--0----------------------------------------------------| 
G|------------1--------------------------2--1------------------1--------------------1-------| 
D|-----2-2--2----4--2--------------------------4--2---4----2--2----4--2--1-2---4-2----4--4--| 
A|--2----------------------------------------------------2----------------------------------| 
E|------------------------------------------------------------------------------------------| 


E|-----------------------| 
B|------4---2--------0---| 
G|-------------1--3------| 
D|--4--------------------| 
A|-----------------------| 
E|-----------------------| 
                                                                       
                                ESTRIBILHO: 

E|--------------------------------0-------------------------------------------| 
B|---0---0---0--0------0-----0-------0--2--0----------------------2--0--------| 
G|-----------------1------1-------------------2--1-------1-2-1-2--------------| 
D|--------------------------------------------------4--4----------------1--2--| 
A|----------------------------------------------------------------------------| 
E|----------------------------------------------------------------------------| 

 REPETI TODA MÚSICA 5X 
	  

Search Paypal
auto scroll beats size up size down change color hide chords drawings
tab show chords e-chords YouTube Clip e-chords hide all tabs e-chords go to top tab