Caliban

Memorial

Caliban

tabs

by  DEIVCAVALCANTI

save to print version add songbook text version e-mail correct tuner
chordsukulelecavacokeyboardtabbassdrumsharmonicaflute Guitar Pro
close

there isn't a video lesson for this song

chords

Memorial

	  		


Intro 

Guitar 1 

C#      ----------------------------------------------------------------| 
G#      ----------------------------------------------------------------| 
E       ----------------------------------------------------------------| 
B       --0---8---3----0---8---3----------2-----------------------------| 
F#      --0---8---3----0---8---3----------3-----------------------------| 
B       --0---8---3----0---8---3----------3-----------------------------| 
                                        2nd end 
Guitar 2 

C#      -13-15--------18-17----15---12--------------------------| 
G#      ---------13---------------------------------------------| 
E       --------------------------------------------------------| 
B       --------------------------------------------------------| 
F#      --------------------------------------------------------| 
B       --------------------------------------------------------| 


verse 1.1 

Guitar 1/2 

C#      ---------------------------------------------------------------------| 
G#      ---------------------------------------------------------------------| 
E       ---------------------------------------------------------------------| 
B       ---------------------------------------------------------------------| 
F#      ---------------------------------------------------------------------| 
B       -0-0-000--000---0-0-000-0-000---0-0-000-0-000----0-0-000-0-000-0-0-0-| 
           * ***  ***       *** * ***       *** * ***        *** * *** 

verse 1.2 

Guitar 1 

C#      -----------------------------------------------------------| 
G#      -----------------------------------------------------------| 
E       -----------------------------------------------------------| 
B       -770-770-770-770--550-550-550-550--------10-12---8-7-8-10--| 
F#      -----------------------------------12---------10-----------| 
B       -----------------------------------------------------------| 
                        3x times 
Guitar 2 

C#      --------------------------------------------------------| 
G#      --------------------------------------------------------| 
E       --------------------------------------------------------| 
B       -330-330-330-330-220-220-220-220-----7-8----5-3-5-7-----| 
F#      ----------------------------------8------7--------------| 
B       --------------------------------------------------------| 






verse 1.3 
Guitar 1 (everything pm) 

C#      ---------------------------------------------------------------------| 
G#      ---------------------------------------------------------------------| 
E       ---------------------------------------------------------------------| 
B       ---------------------------------------------------------------------| 
F#      ---------------------------------------------------------------------| 
B       -888-888-888-888-220-220-220-220-220-000-0-0--0-0-0-000-0-0--000-0-0-| 


Guitar 1 

C#      ------------------------------------------------------------------| 
G#      ------------------------------------------------------------------| 
E       ------------------------------------------------------------------| 
B       ------------------------------------------------------------------| 
F#      --------------------------------- -----------------3-3-3-3-5-5-5--| 
B       888-888-888-888-220-220-220-220-220-000-0-0--0-0-0-3-3-3-3-5-5-5--| 


Guitar 2 


C#      --13---15---12---13---15---12---10---8----------------| 
G#      ------------------------------------------------------| 
E       ------------------------------------------------------| 
B       ------------------------------------------------------| 
F#      ------------------------------------------------------| 
B       ------------------------------------------------------| 





Chorus 

Guitar 1 

C#      ----------------------------------------------------------------| 
G#      ----------------------------------------------------------------| 
E       ----------------------------------------------------------------| 
B       --8--5--0--3-------------------2--------------------------------| 
F#      --8--5--0--3-------------------3--------------------------------| 
B       --8--5--0--3-------------------3--------------------------------| 
                                    2nd end 




Guitar 2 

C#      -13-15--------18-17----15---12--------------------------------| 
G#      ---------13---------------------------------------------------| 
E       --------------------------------------------------------------| 
B       --------------------------------------------------------------| 
F#      --------------------------------------------------------------| 
B       --------------------------------------------------------------| 



Pre Verse Guitar 1/2 
C#      -----------------------| 
G#      -----------------------| 
E       -----------------------| 
B       --2-------2-2---2------| 
F#      --1-------1-1---1------| 
B       ----0---------0---0----| 



Breakdown 

Guitar 1/2 

C#      -----------------------------------------------------------| 
G#      -----------------------------------------------------------| 
E       -----------------------------------------------------------| 
B       -----------------------------------------------------------| 
F#      --0--------------------------------------------------------| 
B       --0--0-000---00000------0--000-000-000-----0-00--000-------| 
          *  * ***   *****      *  *** *** *** 

C#      -------------------------------------------------------------| 
G#      -------------------------------------------------------------| 
E       -------------------------------------------------------------| 
B       ---------------3---------------------------------------------| 
F#      --0------------------7---------------------------------------| 
B       --0--0-000----------------0--000-000-000-----0-00--000-------| 
          *  * ***                *  *** *** *** 

C#      ------------------------------------------------------------| 
G#      ------------------------------------------------------------| 
E       ------------------------------------------------------------| 
B       ------------------------------------------------------------| 
F#      --0---------------------------------------------------------| 
B       --0--0-000---00000------0--000-000-000-----0-00--000--------| 
          *  * ***   *****      *  *** *** *** 
C#      -------------------------------------------------------------| 
G#      -------------------------------------------------------------| 
E       -------------------------------------------------------------| 
B       ----------------8--------------------------------------------| 
F#      --0-------------------12---------------------3-0-5--5-5-5----| 
B       --0--0-000----------------0--000-000-000-----3-0-5--5-5-5----| 
          *  * ***                *  *** *** *** 
		  

See also:

tabs Scorpions - I wanted to cry tabs Helloween - Halloween tabs Scorpions - Alien Nation tabs Scorpions - Rock You Like a Hurricane tabs Scorpions - Deep and Dark tabs Edguy - Down to the Devil
e-chords

Other versions:

tabs Caliban - Memorial
auto scroll beats size up size down change color hide chords drawings
tab show chords e-chords YouTube Clip e-chords hide all tabs e-chords go to top tab

share