Caliban

One More Lie

Caliban

tabs

by  IRONPOWER4EVER

save to print version add songbook text version e-mail correct tuner
chordsukulelecavacokeyboardtabbassdrumsharmonicaflute Guitar Pro
close

there isn't a video lesson for this song

chords

One More Lie

	  		

Tuning: Drop C 


0:00-0:05 

guitar 1 
D|-13~---13~---13~---13~---13~---13~---13~---13~----| 
A|----17~---17~---17~---17~---17~---17~---17~---17~-| 
F|--------------------------------------------------| 
C|--------------------------------------------------| 
G|--------------------------------------------------| 
C|--------------------------------------------------| 



0:05-0:22 

guitar 1 
D|-13~---13~---13~---13~---13~---13~---13~---13~----| 
A|----17~---17~---17~---17~---17~---17~---17~---17~-| 
F|--------------------------------------------------| 
C|--------------------------------------------------| 
G|--------------------------------------------------| 
C|--------------------------------------------------| 

guitar 2 
D|---------------------------------------| 
A|---------------------------------------| 
F|---------------------------------------| 
C|-4---3---1---4---3---1---4---3---0~----| 
G|-4---3---1---4---3---1---4---3---0~----| 
C|-4---3---1---4---3---1---4---3---0~----| 


guitar 1 
D|-13~---13~---13~---13~---13~---13~---13~---13~----| 
A|----17~---17~---17~---17~---17~---17~---17~---17~-| 
F|--------------------------------------------------| 
C|--------------------------------------------------| 
G|--------------------------------------------------| 
C|--------------------------------------------------| 

guitar 2 
D|---------------------------------------| 
A|---------------------------------------| 
F|---------------------------------------| 
C|-4---3---1---4---3---1---4---3---1~----| 
G|-4---3---1---4---3---1---4---3---1~----| 
C|-4---3---1---4---3---1---4---3---1~----| 



0:22-0:27 

guitar 1 
D|-13~---13~---13~---13~---13~---13~---13~---13~----| 
A|----17~---17~---17~---17~---17~---17~---17~---17~-| 
F|--------------------------------------------------| 
C|--------------------------------------------------| 
G|--------------------------------------------------| 
C|--------------------------------------------------| 

guitar 2 
D|---------------------------------------| 
A|---------------------------------------| 
F|---------------------------------------| 
C|-4---3---1---4---3---1---4---3---0~----| 
G|-4---3---1---4---3---1---4---3---0~----| 
C|-4---3---1---4---3---1---4---3---0~----| 


guitar 1 
D|-13~---13~---13~---13~---13--| 
A|----17~---17~---17~---17~----| 
F|-----------------------------| 
C|-----------------------------| 
G|-----------------------------| 
C|-----------------------------| 

guitar 2 
D|---------------------------------------| 
A|---------------------------------------| 
F|---------------------------------------| 
C|-4---3---1---4---3---1---4---3---1-----| 
G|-4---3---1---4---3---1---4---3---1-----| 
C|-4---3---1---4---3---1---4---3---1-----| 



0:28-0:40 

guitar 1 
D|---------------------------------------| 
A|---------------------------------------| 
F|---------------------------------------| 
C|-4---3---1---4---3---1---4---3---0~----| 
G|-4---3---1---4---3---1---4---3---0~----| 
C|-4---3---1---4---3---1---4---3---0~----| 

guitar 2 
D|---------------------------------------------------------| 
A|---------------------------------------------------------| 
F|---------------------------------------------------------| 
C|-4---3---1---4---3---1---4---3---------------------------| 
G|-4---3---1---4---3---1---4---3---0-0---0-0-0-0-0---0-0-0-| 
C|-4---3---1---4---3---1---4---3---0-0---0-0-0-0-0---0-0-0-| 


guitar 1 
D|---------------------------------------| 
A|---------------------------------------| 
F|---------------------------------------| 
C|-4---3---1---4---3---1---4---3---1~----| 
G|-4---3---1---4---3---1---4---3---1~----| 
C|-4---3---1---4---3---1---4---3---1~----| 

guitar 2 
D|---------------------------------------------------------| 
A|---------------------------------------------------------| 
F|---------------------------------------------------------| 
C|-4---3---1---4---3---1---4---3---------------------------| 
G|-4---3---1---4---3---1---4---3---1-1---1-1-1-1-1---1-1-1-| 
C|-4---3---1---4---3---1---4---3---1-1---1-1-1-1-1---1-1-1-| 



0:40-0:51 

both guitars 
D|---------------------------------------------------------| 
A|---------------------------------------------------------| 
F|---------------------------------------------------------| 
C|-4---3---1---4---3---1---4---3---------------------------| 
G|-4---3---1---4---3---1---4---3---0-0---0-0-0-0-0---0-0-0-| 
C|-4---3---1---4---3---1---4---3---0-0---0-0-0-0-0---0-0-0-| 


D|---------------------------------------------------------| 
A|---------------------------------------------------------| 
F|---------------------------------------------------------| 
C|-4---3---1---4---3---1---4---3---------------------------| 
G|-4---3---1---4---3---1---4---3---1-1---1-1-1-1-1---1-1-1-| 
C|-4---3---1---4---3---1---4---3---1-1---1-1-1-1-1---1-1-1-| 



0:51-0:56 

both guitars 
D|---------------------------------------| 
A|---------------------------------------| 
F|---------------------------------------| 
C|-4---3---1---4---3---1---4---3---0~----| 
G|-4---3---1---4---3---1---4---3---0~----| 
C|-4---3---1---4---3---1---4---3---0~----| 



0:56-1:09 

guitar 1 
D|----------------------------------------------------------------| 
A|----------------------------------------------------------------| 
F|----------------------------------------------------------------| 
C|-1---0---0-------4---0---0-------1---0---0----------------------| 
G|-1---0---0-------4---0---0-------1---0---0-------0-0-0-0-0---0--| 
C|-1---0---0-------4---0---0-------1---0---0-------0-0-0-0-0---0--| 

guitar 2 
D|----------------------------------------------------------------| 
A|----------------------------------------------------------------| 
F|----------------------------------------------------------------| 
C|-(0)~~----------------------------------------------------------| 
G|-(0)~~----------------------------------------------------------| 
C|-(0)~~----------------------------------------------------------| 


guitar 1 
D|----------------------------------------------------------------| 
A|----------------------------------------------------------------| 
F|----------------------------------------------------------------| 
C|-1---0---0-------4---0---0-------4-\-3-------1-------1-------3--| 
G|-1---0---0-------4---0---0-------4-\-3-------1-------1-------3--| 
C|-1---0---0-------4---0---0-------4-\-3---0---1---0---1---0---3--| 

guitar 2 
D|----------------------------------------------------------------| 
A|----------------------------------------------------------------| 
F|----------------------------------------------------------------| 
C|-(0)~~---------------------------4-\-3-------1-------1-------3--| 
G|-(0)~~---------------------------4-\-3-------1-------1-------3--| 
C|-(0)~~---------------------------4-\-3---0---1---0---1---0---3--| 


guitar 1 
D|----------------------------------------------------------------| 
A|----------------------------------------------------------------| 
F|----------------------------------------------------------------| 
C|-1---0---0-------4---0---0-------1---0---0----------------------| 
G|-1---0---0-------4---0---0-------1---0---0-------0-0-0-0-0---0--| 
C|-1---0---0-------4---0---0-------1---0---0-------0-0-0-0-0---0--| 

guitar 2 
D|----------------------------------------------------------------| 
A|----------------------------------------------------------------| 
F|----------------------------------------------------------------| 
C|-0~~------------------------------------------------------------| 
G|-0~~---------------------------------------------0-0-0-0-0---0--| 
C|-0~~---------------------------------------------0-0-0-0-0---0--| 


guitar 1 
D|----------------------------------------------------------------| 
A|----------------------------------------------------------------| 
F|----------------------------------------------------------------| 
C|-1---0---0-------4---0---0-------4-\-3-------1-------1-------3--| 
G|-1---0---0-------4---0---0-------4-\-3-------1-------1-------3--| 
C|-1---0---0-------4---0---0-------4-\-3---0---1---0---1---0---3--| 

guitar 2 
D|----------------------------------------------------------------| 
A|----------------------------------------------------------------| 
F|----------------------------------------------------------------| 
C|---------------------------------4-\-3-------1-------1-------3--| 
G|-0---0---------------------------4-\-3-------1-------1-------3--| 
C|-0---0---------------------------4-\-3---0---1---0---1---0---3--| 



1:09-1:36 

both guitars 
D|----------------------------------------------------------------| 
A|----------------------------------------------------------------| 
F|----------------------------------------------------------------| 
C|-1---0---0-------4---0---0-------1---0---0----------------------| 
G|-1---0---0-------4---0---0-------1---0---0-------0-0-0-0-0---0--| 
C|-1---0---0-------4---0---0-------1---0---0-------0-0-0-0-0---0--| 


D|----------------------------------------------------------------| 
A|----------------------------------------------------------------| 
F|----------------------------------------------------------------| 
C|-1---0---0-------4---0---0-------4-\-3-------1-------1-------3--| 
G|-1---0---0-------4---0---0-------4-\-3-------1-------1-------3--| 
C|-1---0---0-------4---0---0-------4-\-3---0---1---0---1---0---3--| 



1:23-1:36 (harmonics) 

guitar 3 
D|----------------------------------------------------------------| 
A|----------------------------------------------------------------| 
F|----------------------------------------------------------------| 
C|-/4-------------------------------------------------------------| 
G|----------------------------------------------------------------| 
C|----------------------------------------------------------------| 

guitar 4 
D|----------------------------------------------------------------| 
A|----------------------------------------------------------------| 
F|----------------------------------------------------------------| 
C|----------------------------------------------------------------| 
G|-/5-------------------------------------------------------------| 
C|----------------------------------------------------------------| 


guitar 3 
D|----------------------------------------------------------------| 
A|----------------------------------------------------------------| 
F|----------------------------------------------------------------| 
C|-/5-------------------------------------------------------------| 
G|----------------------------------------------------------------| 
C|----------------------------------------------------------------| 

guitar 4 
D|----------------------------------------------------------------| 
A|----------------------------------------------------------------| 
F|----------------------------------------------------------------| 
C|----------------------------------------------------------------| 
G|-/6-------------------------------------------------------------| 
C|----------------------------------------------------------------| 


guitar 3 
D|----------------------------------------------------------------| 
A|----------------------------------------------------------------| 
F|----------------------------------------------------------------| 
C|-/7-------------------------------------------------------------| 
G|----------------------------------------------------------------| 
C|----------------------------------------------------------------| 

guitar 4 
D|----------------------------------------------------------------| 
A|----------------------------------------------------------------| 
F|----------------------------------------------------------------| 
C|----------------------------------------------------------------| 
G|-/8-------------------------------------------------------------| 
C|----------------------------------------------------------------| 


guitar 3 
D|----------------------------------------------------------------| 
A|----------------------------------------------------------------| 
F|----------------------------------------------------------------| 
C|-/5-------------------------------------------------------------| 
G|----------------------------------------------------------------| 
C|----------------------------------------------------------------| 

guitar 4 
D|----------------------------------------------------------------| 
A|----------------------------------------------------------------| 
F|----------------------------------------------------------------| 
C|----------------------------------------------------------------| 
G|-/6-------------------------------------------------------------| 
C|----------------------------------------------------------------| 



1:36-1:50 

both guitars 
D|----------------------------------------------------------------| 
A|----------------------------------------------------------------| 
F|----------------------------------------------------------------| 
C|----------------------------------------------------------------| 
G|-------------------------4--------------------------------------| 
C|-0---0---1---0---1---0-----------0---0---1---0---1---0----------| 
                          p.h. 


1:54-2:09 

acoustic guitar 
D|------------------------------------------------| 
A|----3-----3-----3-----3-----1-----1-----1-----1-| 
F|-------2-----------2-----------2-----------2----| 
C|-0-----------0----------------------------------| 
G|-------------------------3-----------3----------| 
C|------------------------------------------------| 


D|----------------------------1--------------1----| 
A|----4-----4-----4-----4--------------4--------4-| 
F|-------2-----------2-----------2--------2-------| 
C|-1-----------1----------/3--------1-------------| 
G|------------------------------------------------| 
C|------------------------------------------------| 



2:09-2:35 

both guitars 
D|-------------------------------------------------| 
A|-------------------------------------------------| 
F|-------------8-7-5-------------------7-5-4-------| 
C|-5-5-6-8-6-5-------8-6-5-3-3-5-6-5-3-------6-5-3-| 
G|-------------------------------------------------| 
C|-------------------------------------------------| 


D|-----------------------------------------------------| 
A|-----------------------------------------------------| 
F|-----------------------------------------------------| 
C|-------------10-8-7-------------11-10-8-------10-8-7-| 
G|-6-6-8-9-8-6--------9-8-6-9-9-9---------7-7-7--------| 
C|-----------------------------------------------------| 



************************************ 

| /    slide up 
| \    slide down 
| h    hammer-on 
| p    pull-off 
| ~    vibrato 
| +    harmonic 
| x    Mute note 
| b    Bend 
| pb   Pre-bend 
| br   Bend release 
| pbr  Pre-bend release 
| brb  Bend release bend 
| p.h. pinch harmonic 

************************************ 
		  

Full key step upFull key step up
Half key step upHalf key step up
Half key step downHalf key step down
Full key step downFull key step down
hide glossary

See also:

tabs Helloween - A Little Time tabs Blind Guardian - Imaginations From The Other Side tabs Scorpions - Rock You Like A Hurricane (ver. 2) tabs Scorpions - Send Me An Angel tabs Edguy - Scarlet Rose tabs Scorpions - Rock You Like a Hurricane
e-chords

Other versions:

tabs Caliban - One More Lie
auto scroll beats size up size down change color hide chords drawings
tab show chords e-chords YouTube Clip e-chords hide all tabs e-chords go to top tab

share