Caliban

Davy Jones

Caliban

tabs Expert expert

by  RENEJUNIOR

save to print version add songbook text version e-mail correct tuner
chordsukulelecavacokeyboardtabbassdrumsharmonicaflute Guitar Pro
close

there isn't a video lesson for this song

chords

Davy Jones

	  		

Intro: 
e|---------------------------------------------------------------------------| 
B|---------------------------------------------------------------------------| 
G|---------------------------------------------------------------------------| 
D|--0-----------1-------------------0-----------1----------------------------|  x2 
A|--0-0-0-0-0-0-1-0-0-0-0-0-0-0-0-0-0-0-0-0-0-0-1-0-0-0----------------------| 
E|--0-0-0-0-0-0-1-0-0-0-0-0-0-0-0-0-0-0-0-0-0-0-1-0-0-0-/4-4-4-4-3-1---------| 
PM    . . . . .   . . . . . . . . .   . . . . .   . . . 

Verse (Guitar 1) - fast picking: 
e|--12-12b-10----12-12b-------17-17b---------------------12---------12-------| 
B|----------------------13-----------11----6----10----------16b-16b----------| 
G|---------------------------------------------------------------------------| 
D|---------------------------------------------------------------------------| 
A|---------------------------------------------------------------------------| 
E|---------------------------------------------------------------------------| 

Verse (Guitar 2):  
e|---------------------------------------------------------------------------| 
B|---------------------------------------------------------------------------| 
G|---------------------------------------------------------------------------| 
D|---------------------------------------------------------------------------| 
A|-0--0-0-0-0-0-0-0--0-0--0-0--0-0-0-0-0-0-0---x2----------------------------| 
E|-0--0-0-0-0-0-0-0--0-0--0-0--0-0-0-0-0-0-0---------------------------------| 
PM .  . . . . . . .  . .  . .  . . . . . . .  

e|---------------------------------------------------------------------------| 
B|---------------------------------------------------------------------------| 
G|---------------------------------------------------------------------------| 
D|-1--1-1-1-1-1-1-1--1-1--1-1--1-1-1-1-1-1-1---------------------------------| 
A|-0--0-0-0-0-0-0-0--0-0--0-0--0-0-0-0-0-0-0---x2----------------------------| 
E|-0--0-0-0-0-0-0-0--0-0--0-0--0-0-0-0-0-0-0---------------------------------| 
PM .  . . . . . . .  . .  . .  . . . . . . . 

Chorus (Guitar 1): 
e|-12-12b-10----12-12b-------17-17b-15----13--12------12---------------------| 
B|---------------------13-------------------------13-------------------------| 
G|---------------------------------------------------------------------------| 
D|---------------------------------------------------------------------------| 
A|---------------------------------------------------------------------------| 
E|---------------------------------------------------------------------------| 

Chorus (Guitar 2): 
e|---------------------------------------------------------------------------| 
B|---------------------------------------------------------------------------| 
G|---------------------------------------------------------------------------| 
D|-5-------3-------------------------------------------------------5---------| 
A|-3-(x8)--1-(x8)--0-------3-------8-------5-------0-------3-------3---------| 
E|-----------------0-(x8)--3-(x8)--8-(x8)--5-(x8)--0-(x8)--3-(x8)------------| 

Break (x2): 
e|-----------------17\-------------------------------------------------------| 
B|-----------------21\-------------------------------------------------------| 
G|---------------------------------------------------------------------------| 
D|---------------------------------------------------------------------------| 
A|-0-0-0-0-0-0-0-0--------------0-0-0-0--------------------------------------| 
E|-0-0-0-0-0-0-0-0-----0-0---0--0-0-0-0-1\-----------------------------------| 
PM . . . . . . . .     .     .  . . . . 

e|-----------------17\-------------------------------------------------------| 
B|-----------------21\-------------------------------------------------------| 
G|---------------------------------------------------------------------------| 
D|---------------------------------------------------------------------------| 
A|-0-0-0-0-0-0-0-0--------------0-0-0-0--------------------------------------| 
E|-0-0-0-0-0-0-0-0-----0-0---0--0-0-0-0-0-0-0-0-0----------------------------| 
PM . . . . . . . .     .     .  . . . .   .   . 

Verse (Guitar 1) - fast picking: 
e|--12-12b-10----12-12b-------17-17b---------------------12---------12-------| 
B|----------------------13-----------11----6----10----------16b-16b----------| 
G|---------------------------------------------------------------------------| 
D|---------------------------------------------------------------------------| 
A|---------------------------------------------------------------------------| 
E|---------------------------------------------------------------------------| 

Verse (Guitar 2):  
e|---------------------------------------------------------------------------| 
B|---------------------------------------------------------------------------| 
G|---------------------------------------------------------------------------| 
D|---------------------------------------------------------------------------| 
A|-0--0-0-0-0-0-0-0--0-0--0-0--0-0-0-0-0-0-0---x2----------------------------| 
E|-0--0-0-0-0-0-0-0--0-0--0-0--0-0-0-0-0-0-0---------------------------------| 
PM .  . . . . . . .  . .  . .  . . . . . . .  

e|---------------------------------------------------------------------------| 
B|---------------------------------------------------------------------------| 
G|---------------------------------------------------------------------------| 
D|-1--1-1-1-1-1-1-1--1-1--1-1--1-1-1-1-1-1-1---------------------------------| 
A|-0--0-0-0-0-0-0-0--0-0--0-0--0-0-0-0-0-0-0---x2----------------------------| 
E|-0--0-0-0-0-0-0-0--0-0--0-0--0-0-0-0-0-0-0---------------------------------| 
PM .  . . . . . . .  . .  . .  . . . . . . . 

Chorus (Guitar 1): 
e|-12-12b-10----12-12b-------17-17b-15----13--12------12---------------------| 
B|---------------------13-------------------------13-------------------------| 
G|---------------------------------------------------------------------------| 
D|---------------------------------------------------------------------------| 
A|---------------------------------------------------------------------------| 
E|---------------------------------------------------------------------------| 

Chorus (Guitar 2): 
e|---------------------------------------------------------------------------| 
B|---------------------------------------------------------------------------| 
G|---------------------------------------------------------------------------| 
D|-5-------3-------------------------------------------------------5---------| 
A|-3-(x8)--1-(x8)--0-------3-------8-------5-------0-------3-------3---------| 
E|-----------------0-(x8)--3-(x8)--8-(x8)--5-(x8)--0-(x8)--3-(x8)------------| 

Chorus 2 (Guitar 1): 
e|-12-12b-10----12-12b-------17-17b-15----13---------------------------------| 
B|---------------------13----------------------------------------------------| 
G|---------------------------------------------------------------------------| 
D|---------------------------------------------------------------------------| 
A|---------------------------------------------------------------------------| 
E|---------------------------------------------------------------------------| 

Chorus 2 (Guitar 2): 
e|---------------------------------------------------------------------------| 
B|---------------------------------------------------------------------------| 
G|---------------------------------------------------------------------------| 
D|-5-------3-----------------------------------------------------------------| 
A|-3-(x8)--1-(x8)--0-------3-------8-------5-------0-------------------------| 
E|-----------------0-(x8)--3-(x8)--8-(x8)--5-(x8)--0-------------------------| 

Bridge: 
e|---------------------------------------------------------------------------| 
B|---------------------------------------------------------------------------| 
G|---------------------------------------------------------------------------| 
D|-3---------------------------------5---------3-----------------------------| 
A|-3-----------------------------------------------------3-------------------| 
E|-3-3-3-3-3-3-3-3-3-3-3-3-3-3-3-3-3---3-3-3-3---3-3-3-3---3-3---------------| 

e|---------------------------------------------------------------------------| 
B|---------------------------------------------------------------------------| 
G|---------------------------------------------------------------------------| 
D|-3---------------------------------5---------3-----------------------------| 
A|-3-----------------------------------------------------3h7-----------------| 
E|-3-3-3-3-3-3-3-3-3-3-3-3-3-3-3-3-3---3-3-3-3---3-3-3-3---------------------| 

e|---------------------------------------------------------------------------| 
B|---------------------------------------------------------------------------| 
G|---------------------------------------------------------------------------| 
D|---------------------------------------------------------------------------| 
A|-0-0-0-0-0-0-0-0--0-0--0-0--0-0-0-0-0-0-0-0-0-0-0-0-0-0--------------------| 
E|-0-0-0-0-0-0-0-0--0-0--0-0--0-0-0-0-0-0-0-0-0-0-0-0-0-0---(x2)-------------| 

e|---------------------------------------------------------------------------| 
B|---------------------------------------------------------------------------| 
G|---------------------------------------------------------------------------| 
D|-3---------------------------------5---------3-----------------------------| 
A|-3-----------------------------------------------------3-------------------| 
E|-3-3-3-3-3-3-3-3-3-3-3-3-3-3-3-3-3---3-3-3-3---3-3-3-3---3-3---------------| 

e|---------------------------------------------------------------------------| 
B|---------------------------------------------------------------------------| 
G|---------------------------------------------------------------------------| 
D|-3---------------------------------5---------3-----------------------------| 
A|-3-----------------------------------------------------3h7-----------------| 
E|-3-3-3-3-3-3-3-3-3-3-3-3-3-3-3-3-3---3-3-3-3---3-3-3-3---------------------| 

e|---------------------------------------------------------------------------| 
B|---------------------------------------------------------------------------| 
G|---------------------------------------------------------------------------| 
D|------------------------------------------------------3-5------------------| 
A|------------------------------------------------------3-3------------------| 
E|-0-0-0-0-0-0-0--0-0-0-0-00-00--0-0-0-0-0-0-0--0-00-00-3--------------------| 
PM . . . .   .    . . .   .  .   . . . .   .      .  . 

Chorus (x2) 

Break: 
e|---------------------------------------------------------------------------| 
B|---------------------------------------------------------------------------| 
G|---9-9-7-9---10-10-9-10---12-12-10-12---14-14-12-14------------------------| 
D|-0-------------------------------------------------------------------------| 
A|---------------------------------------------------------------------------| 
E|---------------------------------------------------------------------------| 

e|---------------------------------------------------------------------------| 
B|---------------------------------------------------------------------------| 
G|---------------------------------------------------------------------------| 
D|-7------------------7--5------------------5--3------------------3----------| 
A|-7--7-7-7-7-7-7-7-7-7--5--5-5-5-5-5-5-5-5-5--3--3-3-3-3-3-3-3-3-3----------| 
E|-7--7-7-7-7-7-7-7-7-7--5--5-5-5-5-5-5-5-5-5--3--3-3-3-3-3-3-3-3-3----------| 
PM    . . . . . . . .       . . . . . . . .       . . . . . . . . 

e|---------------------------------------------------------------------------| 
B|---------------------------------------------------------------------------| 
G|---------------------------------------------------------------------------| 
D|-2------------------2--2------------------2--2-----------------------------| 
A|-2--2-2-2-2-2-2-2-2-2--2--2-2-2-2-2-2-2-2-2--2--2-2-2-2-2-2-2-2------------| 
E|-2--2-2-2-2-2-2-2-2-2--2--2-2-2-2-2-2-2-2-2--2--2-2-2-2-2-2-2-2------------| 
PM    . . . . . . . .       . . . . . . . .       . . . . . . . . 

Ending (look for strumming) (x2): 
e|---------------------------------------------------------------------------| 
B|---------------------------------------------------------------------------| 
G|---------------------------------------------------------------------------| 
D|---------------------------------------------------------------------------| 
A|-0--0-0-0-0-0--0-0--0-0--0--0-0--0--0-0-0-0-0-0----------------------------| 
E|-0--0-0-0-0-0--0-0--0-0--0--0-0--0--0-0-0-0-0-0--(x2)----------------------| 
PM .  . . . . .  . .  . .  .  . .  .  . . . . . .  

e|---------------------------------------------------------------------------| 
B|---------------------------------------------------------------------------| 
G|---------------------------------------------------------------------------| 
D|-1--1-1-1-1-1--1-1--1-1--1--1-1--1--1-1-1-1-1-1----------------------------| 
A|-0--0-0-0-0-0--0-0--0-0--0--0-0--0--0-0-0-0-0-0----------------------------| 
E|-0--0-0-0-0-0--0-0--0-0--0--0-0--0--0-0-0-0-0-0--(x2)----------------------| 
PM .  . . . . .  . .  . .  .  . .  .  . . . . . .  

 
		  

See also:

tabs Helloween - A Little Time tabs Blind Guardian - Imaginations From The Other Side tabs Scorpions - Rock You Like A Hurricane (ver. 2) tabs Scorpions - Send Me An Angel tabs Edguy - Scarlet Rose tabs Scorpions - Rock You Like a Hurricane
e-chords

Other versions:

tabs Caliban - Davy Jones tabs Piratas do Caribe - Davy Jones
auto scroll beats size up size down change color hide chords drawings
tab show chords e-chords YouTube Clip e-chords hide all tabs e-chords go to top tab

share