Cake

Comfort Eagle

Cake

tabs Beginner beginner

save to print version add songbook text version e-mail correct tuner
chordsukulelecavacokeyboardtabbassdrumsharmonicaflute Guitar Pro
close

there isn't a video lesson for this song

chords

Comfort Eagle

	  		Transcribed By - Jake 
 
Hey, this is Cake's Comfort Eagle.  It's a really simple yet awesome song with these  
three basic parts (I'm not including the trumpet.)  For comments and corrections  
e-mail me at [email protected] 
 
------------------------------------------------------------------------------------ 
 
Main Riff 
 
E |---------------------------------| 
B |---------------------------------| 
G |---------------------------------| 
D |---------------------------------| 
A |---------------------------------| 
E |--0-000-001-0--0-000-0-1-4-1-0---| 
 
This is played through most of the song.  You can try to do  
power chords if you want it to sound a little cooler. 
 
Unknown Instrument Solo/PreChorus (arr. for guitar) 
 
E |--0-12-13-12-0----12----------0----------0----------------| 
B |---------------15----15-15-13---12-13-12-----12-----------| 
G |------------------------------------------14----14-14-13--| 
D |----------------------------------------------------------| 
A |----------------------------------------------------------| 
E |----------------------------------------------------------| 
 
He plays that once or twice and changes  
it to this just before the chorus 
 
E |--0-12-13-12-0----12----------0----------000--------------| 
B |---------------15----15-15-13---12-13-12------------------| 
G |----------------------------------------------------------| 
D |----------------------------------------------------------| 
A |----------------------------------------------------------| 
E |----------------------------------------------------------| 
 
Chorus 
 
E |---------------------------------| 
B |---------------------------------| 
G |---------------------------------| 
D |---------------------------------| 
A |---------------------------------| 
E |--0-000-001-0--0-000-0-1-4-1-0---| 
 
It's the same thing as the verse, but  
with that eerie aww-ing in the background 
 
Break 
 
E |-------------------------------------------| 
B |-------------------------------------------| 
G |-------------------------------------------| 
D |----2-3-2---0-2-0-0------------------------| 
A |--------------------3---2-3-2---0-2-0-0----| 
E |--0-------0-----------0-------0---------4--| 
 
This is where it gets slow and he starts  
talking about the pendant key chains again 
 
That's i 
		  

See also:

tabs Santana - Europa tabs Queen - Love of my Life tabs Dire Straits - Sultans of Swing (ao vivo BBC) tabs Eric Clapton - Layla tabs Deep Purple - Deep Purple - Smoke On The Water tabs White Stripes - the seven nation army
e-chords

Other versions:

tabs Cake - Comfort Eagle
auto scroll beats size up size down change color hide chords drawings
tab show chords e-chords YouTube Clip e-chords hide all tabs e-chords go to top tab

share