Cake

I will survive - solo

Cake

tabs Expert expert

save to print version add songbook text version e-mail correct tuner
chordsukulelecavacokeyboardtabbassdrumsharmonicaflute Guitar Pro
close

there isn't a video lesson for this song

chords

I will survive - solo

	  		Tablature by doutorx - any corrections or sugestions mail me -> [email protected]


If u are looking for complete music find out other tab, there are so many...
The solo start at 1:43 after the "yeahhhh..." part

It sounds like to me, i hope it's correct...


|------------------------------------------------------------------------|
|--8b10r8--5-------------------------------------------------------0-----|
|-------------7b9--9r7p5-5---5h7-7-7-7-7--7-7-7---5-7-5--4-5-4-5-4-------|
|--------------------------7--------------------7------------------------|
|------------------------------------------------------------------------|
|------------------------------------------------------------------------|


|------------------------------------------------------------------------|
|------------------------------------------------------------------------|
|---------------------------------------------5---5-7-7b9r7p5-5---5-7----|
|------5-7b9r7p5--5---5---7-5--7-5---5-5-7--7---7---------------7--------|
|--5/7--------------7--------------7-------------------------------------|
|------------------------------------------------------------------------|


|------------------------------------------------------------------------|
|--------------------------------------12--------------------------------|
|-8p7-8p7-8---8p7--------9-11-9--11b13-----13r11p9-11----9-11----9-11-9--|
|-------------------9/11------------------------------11------11---------|
|------------------------------------------------------------------------|
|------------------------------------------------------------------------|


|----7---5---5-4----------------------5----3-2---------------------------|
|-----------------5-5/8-7~~bar------------------3-3/6-5--5-5-5-5-5-5b7-5-|
|5/7---5---5-------------------3/5---3---3-------------------------------|
|------------------------------------------------------------------------|
|------------------------------------------------------------------------|
|------------------------------------------------------------------------|


|----5---3---3-2---------------------------------------------------------|
|-----------------3-3/6-5---5-5-5-5b7-5------9-7-9-9-9-9--9-10-12--------|
|3/5---3---3-------------------------------------------------------------|
|------------------------------------------------------------------------|
|------------------------------------------------------------------------|
|------------------------------------------------------------------------|


_______________________________________________________
Contribuição: daniel wunderlich([email protected])
		  

See also:

tabs Santana - Europa tabs Queen - Love of my Life tabs Dire Straits - Sultans of Swing (ao vivo BBC) tabs Eric Clapton - Layla tabs Deep Purple - Deep Purple - Smoke On The Water tabs White Stripes - the seven nation army
e-chords

Other versions:

tabs Cake - I will survive - solo
auto scroll beats size up size down change color hide chords drawings
tab show chords e-chords YouTube Clip e-chords hide all tabs e-chords go to top tab

share