Café Tacvba

home > Café Tacvba

el Metro Tab

Café Tacvba

Difficulty: nolevelnolevel

by bombaXXX

tuner correct add songbook print version text version save to e-mail
chordsukulelecavacokeyboardtabbassdrumsharmonicsflute Guitar Pro
chords

el Metro

Year: 1994 - Album: Unplugged

  		

Normal Tuning (EADGBE) 

Intro: No guitar is played, the chords are B, B, A, Amaj9 

verse 1: No guitar is played, the chords are B, B, A, Amaj9 

PRE verse 2 (add a few palm mute) 
E-----------------------------------------------------------------| 
B---------------4---2-------------------4---2---------------------| 
G--0h2h4--4-4-----------4--0h2h4--4-4-----------------------------| 
D-----------------------------------------------------------------| 
A-----------------------------------------------------------------| 
E-----------------------------------------------------------------| 

E-----------------------------------------------------------------| 
B---------------4---2---------------------------------------------| 
G--0h2h4--4-4-----------4--0h2h4--4-4---4--4--4--4----------------| 
D-----------------------------------------------------------------| 
A-----------------------------------------------------------------| 
E-----------------------------------------------------------------| 


verse 2 (add a few left hand palm mute) X4 
E---7---7---7-7-x-7--7--7--5---5-5-5-5-9-9-9-9--7-----------------| 
B---7---7---7-7-x-7--7--7--5---5-5-5-5-9-9-9-9--7-----------------| 
G---8---8---8-8-x-8--8--8--6---6-6-6-6-9-9-9-9--------------------| 
D---9---9---9-9---9--9--9--7---7-7-7-7----------------------------| 
A-----------------------------------------------------------------| 
E-----------------------------------------------------------------| 

Chorus 1 (guitar is quiet in this part, but this are the chords in tab format) 
E-----------------------------------------------------------------| 
B-----------------------------------------------------------------| 
G---6----5----4----3--4-----6----5----4----6----------------------| 
D---4----6----2----4--6-----8----6----5----7----------------------| 
A---6----6----4----4--4-----6----6----5----7----------------------| 
E--------4---------2-------------4----3----5----------------------| 


PRE verse 3: repeat Pre verse 2 


verse 3 (add a few left hand palm mute) X4 
E---7---7---7-7-x-7--7--7--5---5-5-5-5-9-9-9-9--7------------------| 
B---7---7---7-7-x-7--7--7--5---5-5-5-5-9-9-9-9--7------------------| 
G---8---8---8-8-x-8--8--8--6---6-6-6-6-9-9-9-9---------------------| 
D---9---9---9-9---9--9--9--7---7-7-7-7-----------------------------| 
A------------------------------------------------------------------| 
E------------------------------------------------------------------| 

verse 3 continued X4  ~=keep ringing 
E---7~-----5~-----9~-----------------------------------------------| 
B---7~-----5~-----9~-----------------------------------------------| 
G---8~-----6~-----9~-----------------------------------------------| 
D---9~-----7~------------------------------------------------------| 
A------------------------------------------------------------------| 
E------------------------------------------------------------------| 

Chorus 2: repeat 1st part of Chorus 1, 3 times, then end with 2nd part 

OUTRO: repeat Pre verse 1. 


 
	  

Full key step upFull key step up
Half key step upHalf key step up
Half key step downHalf key step down
Full key step downFull key step down
Search Paypal
auto scroll beats size up size down change color hide chords drawings
tab show chords e-chords YouTube Clip e-chords hide all tabs e-chords go to top tab