Caetano Veloso

home > Caetano Veloso

Pela luz dos olhos seus Tab

Caetano Veloso

Difficulty: BeginnerBeginner

by insert

tuner correct add songbook print version text version save to e-mail
chordsukulelecavacokeyboardtabbassdrumsharmonicsflute Guitar Pro
chords

Pela luz dos olhos seus

  		|-------------10--------------|\                    
|-12--10--12------12--10--12--| \                  
|-----------------------------|  \        
|-----------------------------|  /riff 1           
|-----------------------------| /                   
|-----------------------------|/          
 
|---------10--------------|\ 
|-10--12------12--10--12--| \ 
|-------------------------|  \ 
|-------------------------|  /riff 2 
|-------------------------| / 
|-------------------------|/ 
 
|---------14--------------|\ 
|-10--12------12--10--12--| \ 
|-------------------------|  \ 
|-------------------------|  /riff 3 
|-------------------------| / 
|-------------------------|/ 
 
|-12--10--12--15--12--10--12--|\          
|-----------------------------| \         
|-----------------------------|  \        
|-----------------------------|  /riff 4  
|-----------------------------| /         
|-----------------------------|/         
 
|-10--12--15--12--10--12--10--12--14--12--10--12--|\ 
|-------------------------------------------------| \ 
|-------------------------------------------------|  \ 
|-------------------------------------------------|  /riff 5 
|-------------------------------------------------| / 
|-------------------------------------------------|/ 
 
|-10--12--15--12--10--17~--|\ 
|--------------------------| \ 
|--------------------------|  \ 
|--------------------------|  /riff 6 
|--------------------------| / 
|--------------------------|/ 
 
 
 
e ai ficou doido!!! 
 
 

	  

Search Paypal
auto scroll beats size up size down change color hide chords drawings
tab show chords e-chords YouTube Clip e-chords hide all tabs e-chords go to top tab