Buckcherry

home > Buckcherry

Crazy Bitch Tab

Buckcherry

Difficulty: BeginnerBeginner

by sf49erscbw

tuner correct add songbook print version text version save to e-mail
chordsukulelecavacokeyboardtabbassdrumsharmonicsflute Guitar Pro
chords

Crazy Bitch

Year: 2006 - Album: 15

  		Intro 
e||-----------------------------------| 
B||-44-44--44xx44x4-9b(10)(9)-7-9-7~--| 
G||-44-44--44xx44x4-9b(10)(9)-7-9-7~--| 
D||-44-44--44xx44x4-------------------| 
A||-----------------------------------| 
E||-----------------------------------| 

e||-----------------------------------| 
B||-44xx44x4--------7-4~--------------| 
G||-44xx44x4--------7-4~--------------| 
D||-44xx44x4--2h4/7-------------------| 
A||-----------------------------------| 
E||-----------------------------------| 

e||-----------------------------------| 
B||-44-44--44xx44x4-9b(10)(9)-7-9-7~--| 
G||-44-44--44xx44x4-9b(10)(9)-7-9-7~--| 
D||-44-44--44xx44x4-------------------| 
A||-----------------------------------| 
E||-----------------------------------| 

e||-----------------------------------| 
B||-----------------------------------| 
G||-----------------------------------| 
D||-----------------------------------| 
A||----------------------5------------| 
E||-0-4--0-5-5--0-6-6--0---7~---------| 


Verse using wah 
e||------------------------------------| 
B||------------------------------------| 
G||------------------------------------| 
D||----------------xxx-----------------| 
A||---------5------xxx-----------------| 
E||-5h7-77-7--5h7~-xxx-----------------| 

e||------------------------------------| 
B||------------------------------------| 
G||------------------------------------| 
D||-xx---------------xxx---------------| 
A||-xx--------5------xxx---------------| 
E||-xx5h7-77-7--5-0--xxx---------------| 

e||------------------------------------| 
B||------------------------------------| 
G||------------------------------------| 
D||-xx---------------xxx---------------| 
A||-xx--------5------xxx---------------| 
E||-xx5h7-77-7--5h7~-xxx---------------| 

e||------------------------------------| 
B||------------------------------------| 
G||------------------------------------| 
D||-xx---------------------------------| 
A||-xx--------------5------------------| 
E||-xx0-4--0-5-5--0---0-7-7~-----------| 

e||------------------------------------| 
B||------------------------------------| 
G||------------------------------------| 
D||-x---------------xxx----------------| 
A||-x--------5------xxx----------------| 
E||-x5h7-77-7--5h7~-xxx----------------| 

e||------------------------------------| 
B||------------------------------------| 
G||------------------------------------| 
D||-xx---------------xxx---------------| 
A||-xx--------5------xxx---------------| 
E||-xx5h7-77-7--5-0--xxx---------------| 

e||------------------------------------| 
B||------------------------------------| 
G||------------------------------------| 
D||-xx---------------xx----------------| 
A||-xx--------5------xx----------------| 
E||-xx5h7-77-7--5h7~-xx----------------| 

 no wah, just distortion 
e||------------------------------------| 
B||------------------------------------| 
G||------------------------------------| 
D||------------------------------------| 
A||----------------5-------------------| 
E||-\0-4--0-5-5--0---0-7-7~------------| 


Chorus 
e||-----------------------------------| 
B||-44-44--44------x9b(10)(9)-7-9-7~--| 
G||-44-44--44------x9b(10)(9)-7-9-7~--| 
D||-44-44--44------x------------------| 
A||-22-22--22-------------------------| 
E||-----------------------------------| 

e||------------------------------------| 
B||------------------------------------| 
G||-44-44------------------------------| 
D||-44-44------------------------------| 
A||-22-22----------------5-------------| 
E||-------\0-4--0-5-5--0---0-7-7~------| 

e||------------------------------------| 
B||-44-44--44------xx9b(10)10~---------| 
G||-44-44--44------xx9b(10)10~---------| 
D||-44-44--44------xx------------------| 
A||-22-22--22--------------------------| 
E||------------------------------------| 


e||------------------------------------| 
B||------------------------------------| 
G||-44-44------------------------------| 
D||-44-44-\----------------------------| 
A||-22-22-\--------------5-------------| 
E||-------\0-4--0-5-5--0---0-7-7~------| 

e||------------------------------------| 
B||------------------------------------| 
G||------------------------------------| 
D||-------------------2----------------| 
A||-0-2-2-2--5-2-2-2----2-2-2--5-2-2-2-| 
E||------------------------------------| 

e||-----------------------------------| 
B||-----------------------------------| 
G||-----------------------------------| 
D||-----------------------------------| 
A||----------------------5------------| 
E||-0-4--0-5-5--0-6-6--0---7~---------| 


Verse 
    Wah...........wah off 
e||------------------------------------| 
B||---------------77-x-7-7~~-----------| 
G||---------------77-x-7-7~~-----------| 
D||------------------------------------| 
A||---------5--------------------------| 
E||-5h7-77-7--5h7----------------------| 

    Wah...........no wah 
e||------------------------------------| 
B||---------------9~~~(----------------| 
G||---------------9~~~-----------------| 
D||------------------------------------| 
A||---------5--------------------------| 
E||-5h7-77-7--5-0----------------------| 

    Wah........... no wah 
e||-----------------------------------| 
B||----------------9^9-7-99-----------| 
G||----------------9^9-7-99-----------| 
D||---------------9-------------------| 
A||---------5-------------------------| 
E||-5h7-77-7--5h7---------------------| 

e||----------------------------------| 
B||----------------------------------| 
G||----------------------------------| 
D||----------------------------------| 
A||---------------5------------------| 
E||-0-4--0-5-5--0---0-7-7~-----------| 

    Wah........... no wah 
e||-----------------------------------| 
B||----------------9^9-7---9-7-99-----| 
G||----------------9^9-7---9-7-99-----| 
D||----------------------9------------| 
A||---------5-------------------------| 
E||-5h7-77-7--5h7---------------------| 

    Wah.......... no wah 
e||------------------------------------| 
B||---------------9^9~~----------------| 
G||---------------9^9~~----------------| 
D||------------------------------------| 
A||---------5--------------------------| 
E||-5h7-77-7--5-0----------------------| 

e||------------------------------------| 
B||------------------------------------| 
G||------------------------------------| 
D||----------------xx------------------| 
A||---------5------xx------------------| 
E||-5h7-77-7--5h7~-xx------------------| 

 no wah effect, just distortion 
e||------------------------------------| 
B||------------------------------------| 
G||------------------------------------| 
D||------------------------------------| 
A||----------------5-------------------| 
E||-\0-4--0-5-5--0---0-7-7~------------| 

Repeat Chorus 

Solo* 

e||---------------------------------------| 
B||---------------------------------------| 
G||-4p2-4p2--2h4p2-4b4v-4b-4-2h4p2-4b-2/--| 
D||---------------------------------------| 
A||---------------------------------------| 
E||---------------------------------------| 


e||-----2-----2----------------------------| 
B||---2---2-----2-5bv5rb-2---2-------------| 
G||-4b------4b-------------4---4b-2--4-2-4-| 
D||----------------------------------------| 
A||----------------------------------------| 
E||----------------------------------------| 

e||---------14--------------------------| 
B||-------14--14-17-17-14----14-14------| 
G||-4b/16b----------------16b------16---| 
D||-------------------------------------| 
A||-------------------------------------| 
E||-------------------------------------| 


e||-------------14-14---14-14-17P14----| 
B||----------17b-----17b-----------17--| 
G||-16rbp14----------------------------| 
D||--------16--------------------------| 
A||------------------------------------| 
E||------------------------------------| 

e||-17b------14-----14------------------| 
B||------17b----17b-----17b17rb14-17-14-| 
G||-------------------------------------| 
D||-------------------------------------| 
A||-------------------------------------| 
E||-------------------------------------| 

e||-----------------------------------| 
B||----17-----------------------------| 
G||-16b--16rbp14-16-14----16b16-14----| 
D||--------------------16-------------| 
A||-----------------------------------| 
E||-----------------------------------| 

e||-----------------------------------| 
B||----------12---10---7--------------| 
G||-16b16-14-14b--12b--9b-------------| 
D||-----------------------------------| 
A||-----------------------------------| 
E||-----------------------------------| 

Interlude 
e||------------------------------------| 
B||------------------------------------| 
G||------------------------------------| 
D||------------------------------------| 
A||---------------5--------------------| 
E||-0-4--0-5-5--0---0-7-7~-------------| 

e||-----------------------------------| 
B||-----------x9brbv------------------| 
G||-----------x9brbv------------------| 
D||-----------------------------------| 
A||-----------------------------------| 
E||-5-7--5-7--------------------------| 

e||-----------------------------------| 
B||-----------------------------------| 
G||-----------------------------------| 
D||-----------------------------------| 
A||-------------------------5---------| 
E||-5-7--5-7--0-4--0-5-5--0---0-7-7~--| 


e||-----------------------------------| 
B||-----------7h9-7h9-7h9p7-----------| 
G||-----------7h9-7h9-7h9p7-----------| 
D||-------------------------9-7-------| 
A||-----------------------------------| 
E||-5-7--5-7--------------------------| 

e||-----------------------------------| 
B||-----------------------------------| 
G||-----------------------------------| 
D||-----------------------------------| 
A||--------------------------5--------| 
E||-5-7--5-7--\0-4--0-5-5--0---0-7-7~-| 
              pick scrape all the way down 

e||------------------------------------| 
B||------------------------------------| 
G||-7-7--9-9---------------------------| 
D||-7-7--9-9---------------------------| 
A||-5-5--7-7------------------5--------| 
E||-------------0-4--0-5-5--0---0-7-7~-| 

e||------------------------------------| 
B||------------------------------------| 
G||-7-7--9-9---------------------------| 
D||-7-7--9-9---------------------------| 
A||-5-5--7-7------------------5--------| 
E||-------------0-4--0-5-5--0---0-7-7~-| 

e||------------------------------------| 
B||------------------------------------| 
G||-7-7--9-9---------------------------| 
D||-7-7--9-9---------------------------| 
A||-5-5--7-7------------------5--------| 
E||-------------0-4--0-5-5--0---0-7-7~-| 

e||------------------------------------| 
B||------------------------------------| 
G||-7-7--9-9---------------------------| 
D||-7-7--9-9---------------------------| 
A||-5-5--7-7------------------5--------| 
E||-------------0-4--0-5-5--0---0-7-7~-| 


e||-----------------------------------| 
B||-----------------------------------| 
G||-----------------------------------| 
D||-----------------------------------| 
A||---------------5-------------------| 
E||-0-4--0-5-5--0---0-7-7~------------| 

e||-----------------------------------| 
B||-----------------------------------| 
G||-----------------------------------| 
D||-----------------------------------| 
A||-------------5---------------------| 
E||-0-4--0-5555---0-7-7~--------------| 

e||-----------------------------------| 
B||-----------------------------------| 
G||-----------------------------------| 
D||-----------------------------------| 
A||-----------------------------------| 
E||-0-4--0-55--5-0-4--0-55------------| 

e||-----------------------------------| 
B||-----------------------------------| 
G||-----------------------------------| 
D||----------------------9\-----------| 
A||----------------5-----9\-----------| 
E||-5-0-4--0-55--0---0-7-7\-----------| 
	  

Search Paypal
auto scroll beats size up size down change color hide chords drawings
tab show chords e-chords YouTube Clip e-chords hide all tabs e-chords go to top tab