Buckcherry

home > Buckcherry

Say Fuck It Tab

Buckcherry

Difficulty: nolevelnolevel

by edsooliveira

tuner correct add songbook print version text version save to e-mail
chordsukulelecavacokeyboardtabbassdrumsharmonicsflute Guitar Pro
chords

Say Fuck It

  		----

Chords used throughout: 
e|---------------------------------------------------------------------------| 
B|---------------------------------------------------------------------------| 
G|-------------4---------------------2---------------------------------------| 
D|---4---------4----------6----------2---------------------------------------| 
A|---4---------2----------6----------0---------------------------------------| 
E|---2--------------------4--------------------------------------------------| 
     F#        B          G#         A     Power chords 

Intro: 
e|---------------------------------------------------------------------------| 
B|---------------------------------------------------------------------------| 
G|---------4-----------------------------------------------------------------| 
D|--4------4-----------------------------------------------------------------| 
A|--4------2-----------------------------------------------------------------| 
E|--2------------------------------------------------------------------------| 
    F# x8  B x8 Repeat 

Early Chorus: 
e|---------------------------------------------------------------------------| 
B|---------------------------------------------------------------------------| 
G|---------4-----------------------------------------------------------------| 
D|--4------4-----------------------------------------------------------------| 
A|--4------2-----------------------------------------------------------------| 
E|--2------------------------------------------------------------------------| 
    F# x16  B x16 Play the Chorus once it plays it half way then goes into the Verse 

Verse: 
e|---------------------------------------------------------------------------| 
B|---------------------------------------------------------------------------| 
G|---------4---------------------4-------------------------------------------| 
D|--4------4---------4-----------4-------------------------------------------| 
A|--4------2---------4-----------2-------------------------------------------| 
E|--2----------------2-------------------------------------------------------| 
    F# x16  B x16    F# x 16     B x16    Play Palm muted 

Chorus: 
e|---------------------------------------------------------------------------| 
B|---------------------------------------------------------------------------| 
G|---------4---------------------4-------------------------------------------| 
D|--4------4---------4-----------4-------------------------------------------| 
A|--4------2---------4-----------2-------------------------------------------| 
E|--2----------------2-------------------------------------------------------| 
    F# x16  B x16    F# x 16     B x16   Same thing as the Verse but not palm muted 

Bridge: 
e|---------------------------------------------------------------------------| 
B|---------------------------------------------------------------------------| 
G|----------2--------4-------------------------------------------------------| 
D|---6------2--------4-------------------------------------------------------| 
A|---6------0--------2-------------------------------------------------------| 
E|---4-----------------------------------------------------------------------| 
     G# x8  A x8     x16 Play Muted first time then afterwards it's played open 

Tappy Part (For Lead) 
e|---------------------------------------------------------------------------| 
B|---7-5-4-5-7-5-4-5-----12-10-9-10-12-10-9-10-------------------------------| 
G|---------------------------------------------------------------------------| 
D|---------------------------------------------------------------------------| 
A|---------------------------------------------------------------------------| 
E|---------------------------------------------------------------------------| 
It's this or a step down sounds right when i play along to the track 

If anything confuses you mainly when to do parts here's the list 

Intro 
verse 1 only Lead 
Early Chorus only plays half the full Chorus 
verse 2 Rhythm plays aswell palm muted 
Chorus 1 Rhythm plays open not palm muted 
Bridge 1 palm muted 
Chorus 2 
verse 3 
Chorus 4 
Bridge 2 
Solo and the Chorus at the same time so don't stop 
End 

I Hope this helped   
Please Rate :) 
************************************ 

| /   slide up 
| \   slide down 
| h   hammer-on 
| p   pull-off 
| ~   vibrato 
| +   harmonic 
| x   Mute note 
| b   Bend 
| pb  Pre-bend 
| br  Bend release 
| pbr Pre-bend release 
| brb Bend release bend 

************************************ 
	  

Full key step upFull key step up
Half key step upHalf key step up
Half key step downHalf key step down
Full key step downFull key step down
Search Paypal
auto scroll beats size up size down change color hide chords drawings
tab show chords e-chords YouTube Clip e-chords hide all tabs e-chords go to top tab