Buck 65

Way Back When

Buck 65

tabs

by  MARCNAGEL

save to print version add songbook text version e-mail correct tuner
chordsukulelecavacokeyboardtabbassdrumsharmonicaflute Guitar Pro
close

there isn't a video lesson for this song

chords

Way Back When

	  		

e|-----7-------7-------7-----7---------7-------7-------7-----7-----| 
B|---8---8---8---8---8---8-----8-----8---8---8---8---8---8-----8---| 
G|-9-------9-------8-------8-----8-7-------7-------8-------8-----8-| 
D|-----------------------------------------------------------------| 
A|-----------------------------------------------------------------| 
E|-----------------------------------------------------------------| 


2nd verse 
e|-7----7----7----7----------------------------------------------| 
B|-8----8----8----8----------------------------------------------| 
G|-9----8----7----8----------------------------------------------| 
D|---------------------------------------------------------------| 
A|---------------------7----6----5----6----6-7----6----5----6----| 
E|---------------------------------------------------------------| 
                                             ^(at this point, main riff  
                                               comes back in, playing  
                                               overtop) 

Now, here's how you play the keyboard(?) parts throughout the song: 

Intro: 
0:00-0:10 
e|-7--------7---5--------------5-7--| 
B|----5-7-8-------8-7-5--5-7-8------| 
G|----------------------------------| 
D|----------------------------------| 
A|----------------------------------| 
E|----------------------------------| 

Chorus: 
0:28-0:47 
e|-------7--------7---5--------------5-7---5---5-| 
B|-5-7-8----5-7-8-------8-7-5--5-7-8---------8---| 
G|-----------------------------------------------| 
D|-----------------------------------------------| 
A|-----------------------------------------------| 
E|-----------------------------------------------| 

e|-7--------7---5--------------5-7--| 
B|----5-7-8-------8-7-5--5-7-8------| 
G|----------------------------------| 
D|----------------------------------| 
A|----------------------------------| 
E|----------------------------------| 

Parts through verse 2: 
1:01-1:04 
e|-------7---5---5-| 
B|-5-7-8-------8---| 
G|-----------------| 
D|-----------------| 
A|-----------------| 
E|-----------------| 

1:11-1:14 
e|-------7---5---5-| 
B|-5-7-8-------8---| 
G|-----------------| 
D|-----------------| 
A|-----------------| 
E|-----------------| 

Chorus: 
1:20-1:40 
e|-7------5-7-------7---5--------------5-7---5---5-| 
B|------------5-7-8-------8-7-5--5-7-8---------8---| 
G|-------------------------------------------------| 
D|-------------------------------------------------| 
A|-------------------------------------------------| 
E|-------------------------------------------------| 

e|-7--------7---5--------------5-7---5-7-5-| 
B|----5-7-8-------8-7-5--5-7-8-------------| 
G|-----------------------------------------| 
D|-----------------------------------------| 
A|-----------------------------------------| 
E|-----------------------------------------| 

Solo + Scratch Solo: 
1:41-1:58 
e|-7------6------5------6------7------6------5------6------| 
B|---------------------------------------------------------| 
G|---------------------------------------------------------| 
D|---------------------------------------------------------| 
A|---------------------------------------------------------| 
E|---------------------------------------------------------| 

Chorus: 
2:34-2:53 
e|-------7--------7---5--------------5-7---5---5-| 
B|-5-7-8----5-7-8-------8-7-5--5-7-8---------8---| 
G|-----------------------------------------------| 
D|-----------------------------------------------| 
A|-----------------------------------------------| 
E|-----------------------------------------------| 

e|-7--------7---5--------------5-7--| 
B|----5-7-8-------8-7-5--5-7-8------| 
G|----------------------------------| 
D|----------------------------------| 
A|----------------------------------| 
E|----------------------------------| 

Outro: 
2:54-3:11 
e|-----------------5---5---5-7--5-7-5-7---7--5--------| 
B|-5--7-5-7-5-7-8----8---8----------------------8--7--| 
G|----------------------------------------------------| 
D|----------------------------------------------------| 
A|----------------------------------------------------| 
E|----------------------------------------------------|x2 

3:11-3:19 
e|-----------------5---5-----7--5-7-5-7---7--5--------| 
B|-5--7-5-7-5---8----8---8----------------------8--7--| 
G|----------------------------------------------------| 
D|----------------------------------------------------| 
A|----------------------------------------------------| 
E|----------------------------------------------------| 

3:20-END 
e|-----------------5---5---5-7--5-7-5-7---7--5-------------| 
B|-5--7-5-7-5-7-8----8---8---------------------8-7--8--5---| 
G|---------------------------------------------------------| 
D|---------------------------------------------------------| 
A|---------------------------------------------------------| 
E|---------------------------------------------------------| 


************************************ 

| /   slide up 
| \   slide down 
| h   hammer-on 
| p   pull-off 
| ~   vibrato 
| +   harmonic 
| x   Mute note 
| b   Bend 
| pb  Pre-bend 
| br  Bend release 
| pbr Pre-bend release 
| brb Bend release bend 

************************************ 
		  

See also:

tabs Red Hot Chili Peppers - Under The Bridge Acoustic tabs Paramore - Crushcrushcrush (Acoustic) tabs Red Hot Chili Peppers - Under The Bridge (ver. 2) tabs Ben Harper - The Woman in You tabs Red Hot Chili Peppers - Venice Queen tabs Red Hot Chili Peppers - Live in Slane Castle
e-chords

Other versions:

tabs Buck 65 - Way Back When
auto scroll beats size up size down change color hide chords drawings
tab show chords e-chords YouTube Clip e-chords hide all tabs e-chords go to top tab

share