Bob Marley

home > Bob Marley

Chances are Tab

Bob Marley

Difficulty: ExpertExpert

tuner correct add songbook print version text version save to e-mail
chordsukulelecavacokeyboardtabbassdrumsharmonicsflute Guitar Pro
chords

Chances are

Year: 2001 - Album: All In One

  		i coulldnt find any tabs of this song on the internet so i popped in 
the cd\ and figured the lyrics and song out myself.i doubt all the 
lyrics are      \ correct but if u dont like them you can look it up yourself.            
   \ 
---------------------------------------------------------------------------\ 
 
              C        B#m    F#     G# 
e------------------------------------------------------   || 
B----------------6--------4------2------4-------------- 0 || 
G---------------6--6-----5-5----3-3----5-5-------------   || 
D--------------6----6---5---5--4---4--7---7------------   || 
A-0-2--3------4--------3------4------7----------------- 0 || 
E------------------------------------------------------   || 
 
 
CHANCES ARE THEYRE GONNA LEAVE NOW 
SORRY FOR the victem now 
THOUGH MY DAYS ARE FILLED WITH SORROW 
I STAY HERE ARE BRIGHT TOMORROW 
CHANCES CHANCES ARE SOME MIGHT NOT GO DOWN 
CHANCES ARE HANG ON RIGHT NOW 
CHANCES ARE OH CHANCES YOUR MY CHANCES 
CHANCES ARE HANG ON RIGHT NOW(repeat the lyrics 1 time) 
HANG ON RIGHT NOW 
EVEN WITH LONLYNESS IT TAKES A TEAR DROP 
WE HAVE TO WIN 
HANG ON RIGHT NOW 
(THEN THERE IS SOME BACKGROUND SINGING) 
----------------------------------------------------------------------\ 
Well thats it except for a few hammer ons in between the lines        \ 
if you have the true stuff or want to lecture me on this e-mail me at \  
   **PEACE*****                           \ 

	  

Full key step upFull key step up
Half key step upHalf key step up
Half key step downHalf key step down
Full key step downFull key step down
Search Paypal
auto scroll beats size up size down change color hide chords drawings
tab show chords e-chords YouTube Clip e-chords hide all tabs e-chords go to top tab